Log in

One click and you are in

Login with Facebook Login with Google

Why sign up and log in

Guitar Tabs Explorer
Misc Traditional tabs for President garfields hornpipe

President Garfields Hornpipe tab by Misc Traditional

Misc Traditional tabs for President garfields hornpipe

Guitar tabs

TAB: President Garfield's Hornpipe (traditional, arr. Bo Parker, TAB by Bo
Parker, Bo.Parker@msfc.nasa.gov)

Pick-up measure
  N/C
  |   |   |   |
|-----------------|
|-----------------|
|-----------------|
|-------------0-2-|
|-----------------|
|-----------------|

Part A chord diagramA augmentedA
  A chord diagramG+G                                   A chord diagramD MajorD
1 |   |   |   |   2 |   |   |   |   3 |   |   |   |   4 |   |   |   |
|-----------------|-----------------|-----------------|-------0---------|
|-----------------|---------0---0-2-|-3-------3-------|-3-2-3---3-1-0---|
|*0-------0-------|-0---0-2---3-----|---2---2---2---2-|---------------2-|
|*--0---0---0---0-|---4-------------|-----4-------4---|-----------------|
|-----2-------2---|-----------------|-----------------|-----------------|
|-----------------|-----------------|-----------------|-----------------|

                                                      _1________________
  A chord diagramG+G                                   A chord diagramD MajorD               | A chord diagramG+G
5 |   |   |   |   6 |   |   |   |   7 |   |   |   |   8 |   |   |   |
|-----------------|-----------------|---0-2-0---------|-----------------|
|-----------------|---------0---0-2-|-3-------3-1-0---|-----------------|
|-0-------0-------|-0---0-2---3-----|---------------2-|-0-------0-------|
|---0---0---0---0-|---4-------------|-----------------|---0---0-----0-2-|
|-----2-------2---|-----------------|-----------------|-----2-----------|
|-----------------|-----------------|-----------------|-----------------|

_2________________
| A chord diagramG+G
16|   |   |   |
|-----------------|
|-----------------|
|-0---0-0-0---1-3-|
|-----------------|
|-----------------|
|-----------------|

Part A chord diagramBB
  A chord diagramC majorC                 A chord diagramG+G                 A chord diagramD MajorD                 A chord diagramG+G
17|   |   |   |  18 |   |   |   |  19 |   |   |   |  20 |   |   |   |
|-0-------0-------|-----------------|---------0-------|-----------------|
|---1---1---1---1-|-3-0---0-3-0---0-|-------3---3-----|---------0---1-3-|
|*----0-------0---|-----0-------0---|-5---5-------5---|-0---0-2---------|
|*----------------|-----------------|---4-----------4-|---4-------------|
|-----------------|-----------------|-----------------|-----------------|
|-----------------|-----------------|-----------------|-----------------|

                                                      _1________________
  A chord diagramC majorC                 A chord diagramG+G                 A chord diagramD MajorD               | A chord diagramG+G
21|   |   |   |  22 |   |   |   |  23 |   |   |   |  24 |   |   |   |
|-0-------0-------|-----------------|-----------------|-----------------|
|---1---1---1---1-|-3-0---0-3-0---0-|-1-0-------------|-------------1-3-|
|-----0-------0---|-----0-------0---|-----2-0---------|-0-------0------*|
|-----------------|-----------------|---------4-0-2-4-|---0---0--------*|
|-----------------|-----------------|-----------------|-----2-----------|
|-----------------|-----------------|-----------------|-----------------|

_2________________
| A chord diagramG+G
32|   |   |   |
|-----------------|
|-----------------|
|-0---0-0-0-------|
|-----------------|
|-----------------|
|-----------------|

-----END INCLUDED MATERIAL-----

See ya

-Bo Parker
Bo.Parker@msfc.nasa.gov
bo_parker@fbpmac.msfc.nasa.gov

"I poked at it with a stick."

Almost there ...

Sign in to get your own page with links to favourite songs and more. You are just one click away...

Login with Facebook Login with Google