Log in

One click and you are in

Login with Facebook Login with Google

Why sign up and log in

Guitar Tabs Explorer
Misc Traditional tabs for My bonnie

Guitar tabs

tabbed by Djordje Putnik (alias George Pootnik)

	www.midiguitar.de

        traditional 3/4
Chords:                 A chord diagramC majorC
     H        Q         Q    Q    Q       Q    Q    Q       Q    H
A chord diagramE MajorE||----------------||---0--------------|-----------------|----------------|
A chord diagramBB||----------------||--------3----1----|--3----1---------|----------------|
A chord diagramG+G||-----------0----||*-----------------|------------2----|--0-------------|
A chord diagramD MajorD||----------------||*-----------------|-----------------|-------2--------|
A chord diagramA augmentedA||----------------||------------------|-----------------|----------------|
A chord diagramE MajorE||----------------||------------------|-----------------|----------------|


                                                        A chord diagramG+G
  Q    Q    Q       Q    Q    Q       Q    Q    Q       H.
-----------------|--0--------------|-----------------|---------------|
-----------------|-------3----1----|--1----0----1----|--3------------|
------------0----|-----------------|-----------------|---------------|
--L--------------|-----------------|-----------------|---------------|
-----------------|-----------------|-----------------|---------------|
-----------------|-----------------|-----------------|---------------|


                   A chord diagramC majorC
  H        Q       Q    Q    Q       Q    Q    Q       Q    H
----------------|--0--------------|-----------------|----------------|
----------------|-------3----1----|--3----1---------|----------------|
-----------0----|-----------------|------------2----|--0-------------|
----------------|-----------------|-----------------|-------2--------|
----------------|-----------------|-----------------|----------------|
----------------|-----------------|-----------------|----------------|

                    A chord diagramFF                 A chord diagramG7G7                A chord diagramC majorC
  Q    Q    Q       Q    Q    Q       Q    Q    Q       H.
-----------------|-----------------|-----------------|---------------|----------------|
-----------------|-------3----1----|--0---------0----|--1------------|--L-------------|
------------0----|--2--------------|-------2---------|---------------|----------------|
--L--------------|-----------------|-----------------|---------------|----------------|
-----------------|-----------------|-----------------|---------------|----------------|
-----------------|-----------------|-----------------|---------------|----------------|


   Refrain
  A chord diagramC majorC                               A chord diagramFF
  H.              H.              H.              H        Q
---------------|---------------|---------------|----------------|
---------------|--1------------|---------------|--3--------1----|
--0------------|---------------|--2------------|----------------|
---------------|---------------|---------------|----------------|
---------------|---------------|---------------|----------------|
---------------|---------------|---------------|----------------|


  A chord diagramG+G                                   A chord diagramC majorC
  Q    Q    Q       Q    Q    Q       H        Q       H.              H.
-----------------|-----------------|----------------|--0------------|---------------|
--0----0----0----|--0---------0----|--1--------3----|---------------|---------------|
-----------------|-------2---------|----------------|---------------|--0------------|
-----------------|-----------------|----------------|---------------|---------------|
-----------------|-----------------|----------------|---------------|---------------|
-----------------|-----------------|----------------|---------------|---------------|


                  A chord diagramFF                                A chord diagramG+G
  H.              H.              H        Q       Q    Q    Q       Q    Q    Q
---------------|---------------|----------------|-----------------|-----------------|
--1------------|---------------|--3--------1----|--0----0----0----|--0---------0----|
---------------|--2------------|----------------|-----------------|-------2---------|
---------------|---------------|----------------|-----------------|-----------------|
---------------|---------------|----------------|-----------------|-----------------|
---------------|---------------|----------------|-----------------|-----------------|


  A chord diagramC majorC             1.2.3.              4. End
  H.              Q    Q    Q         H        Q
---------------|------------------||----------------||
--1------------|--L---------------||--L-------------||
---------------|------------0----*||----------------||
---------------|-----------------*||----------------||
---------------|------------------||----------------||
---------------|------------------||----------------||



Duration 🏷Legend
---------------
W - whole
H - half
Q - quarter
A chord diagramE MajorE - 8th

Tablature 🏷Legend
----------------
L - tied note

Other versions of My Bonnie

My bonnie is over the oceanChords
My bonnie lies over the oceanChords

Almost there ...

Sign in to get your own page with links to favourite songs and more. You are just one click away...

Login with Facebook Login with Google