Log in

One click and you are in

Login with Facebook Login with Google

Why sign up and log in

Guitar Tabs Explorer
Misc Traditional tabs for Mallagenia

Guitar tabs

MALLAGENIA

here ya go!
Just a little something I was working on..
Keeping a moderate tempo, and speeding it up as you go along...keep
repeating..
E-------0-----0-----0-----0-----0-----0-----0-----0----0---0---0---0----------
B-------0-----0-----0-----0-----0-----0-----1-----1----1---1---1---1----------
G-------1-----1-----1-----1-----1-----1-----2-----2----2---2---2---2----------
D-------2-----2-----2-----2-----2-----2-----2-----2----0---2---2---2----------
A-------2-----2--2--2-----2-----2--2--2--0-----3-----2---0--------------------
E---0------4-----------0-----4-------------------------------3---1------------
The three basic chords are E, F, G, F, E. In that order..
-0---1---3--------------------------------------------------------------------
-0---1---3--------------------------------------------------------------------
-1---2---4--------------------------------------------------------------------
-2---3---5--------------------------------------------------------------------
-2----------------------------------------------------------------------------
-0---1---3--------------------------------------------------------------------

How about a little solo!
0-1-3-1-0-1-3-1-0------------------------0------------------------------------
------------------3-1-3-1-0-1-0---0------0------------------------------------
--------------------------------2---2-0--1------------------------------------
-----------------------------------------2------------------------------------
-----------------------------------------2------------------------------------
------------------------------------------------------------------------------

------------------------------------------------------------------------------
  \
 o/\_             Dan Foss
<\__,\            Rockin on! at danf@clark.edu
 ">   |
  `   |
       \
        \
------------------------------------------------------------------------------

Almost there ...

Sign in to get your own page with links to favourite songs and more. You are just one click away...

Login with Facebook Login with Google