Log in

One click and you are in

Login with Facebook Login with Google

Why sign up and log in

Guitar Tabs Explorer
Misc Traditional tabs for Iberian dance

Guitar tabs

#-- File created with Instab - http://www.pconline.com/~smcarey/instab.html

Title: Iberian Dance
Album: Folk Song

Hey This is My first Tab, i like the song friend showed
me it and i was like cool, so i tabbed it, thanks
Timothy Tumb.

---00---00---00---00---11---11---00---00-|-------------------------------
---00---00---11---11---33---33-----------|-------------------------------
---11---11---22---22---------------------|-------------------------------
---------------------0----0----2----2----|-------------------------------
-----------0----0------------------------|-------------------------------
-0----0----------------------------------|-------------------------------
         This is the intro to the song

-0--0--0--0--0-|---------------------------------------------------------
-0--0--0--0--0-|---------------------------------------------------------
-1--2--4--2--1-|---------------------------------------------------------
-2--3--5--3--2-|---------------------------------------------------------
-2--3--5--3--2-|---------------------------------------------------------
-0--0--0--0--0-|---------------------------------------------------------
        Here is some strumming, push hard on the strings.

---0-0-0-0-0-0-0-0-0-0-0-0-|---------------------------------------------
------0-----0---1-0--------|---------------------------------------------
----1-----1---2-----2-0----|---------------------------------------------
--2-----2---------------3--|---------------------------------------------
---------------------------|---------------------------------------------
---------------------------|---------------------------------------------
             Here is the End repeat and go faster

P.S.
Thanks for the guitar as well Timothy Thumb

Almost there ...

Sign in to get your own page with links to favourite songs and more. You are just one click away...

Login with Facebook Login with Google