Log in

One click and you are in

Login with Facebook Login with Google

Why sign up and log in

Guitar Tabs Explorer
Misc Traditional tabs for Greensleeves

Guitar tabs

Article 7309 of alt.guitar.
Distribution: world

  This is a version of Greensleeves I got off my Classical guitar
teacher. Listen to a version for the rhythm. This version is in 3/4.

  The rhythm transcribed is fairly accurate. Any corrections welcome -
please post, do not E-Mail me. Enjoy!

 |   |   |    |   |   |    |   |   |    |   |   |
|------------|------------|0-----2-0---|------------|
|------------|1-------3---|------------|3-------0---|
|--------2---|------------|------------|------------|
|------------|------------|------------|------------|
|------------|0-------2---|3-----------|------------|
|------------|------------|------------|3-----------|
|------------|------------|------------|------------|
|--------0---|1-----------|------------|0-----------|
|0-----2-----|--------2---|2-----1-2---|--------1---|
|------------|------------|3-----------|2-----------|
|2-----------|0-----------|------------|------------|
|------------|------------|------------|------------|


|------------|------------|0-----2-0---|------------|
|--------0---|1-------3---|------------|3-------0---|
|------------|------------|------------|------------|
|2-----------|------------|------------|------------|
|------------|0-------2---|3-----------|------------|
|0-----------|------------|------------|3-----------|


|------------|------------|------------|------------|
|--------0---|1-----0-----|------------|------------|
|0-----2-----|--------2---|1-------1---|2-----------|
|------------|------------|------3-----|------------|
|2-----------|0-----------|------------|0-----------|
|------------|------------|0-----------|------------|

|------------|3-----------|3-----2-0---|------------|
|------------|------------|------------|3-------0---|
|2-----------|------------|------------|------------|
|------------|2-----------|2-----------|------------|
|0-----------|3-----------|3-----------|------------|
|------------|------------|------------|3-----------|


|------------|------------|------------|------------|
|--------0---|1-----------|------------|0-----------|
|0-----2-----|--------2---|2-----1-2---|--------1---|
|------------|------------|3-----------|2-----------|
|2-----------|0-----------|------------|------------|
|------------|------------|------------|------------|


|------------|3-----------|3-----2-0---|------------|
|------------|------------|------------|3-------0---|
|------------|------------|------------|------------|
|2-----------|2-----------|2-----------|------------|
|------------|3-----------|3-----------|------------|
|0-----------|------------|------------|3-----------|


|------------|------------|------------|------------|
|--------0---|1-----0-----|------------|------------|
|0-----2-----|--------2---|1-------1---|2-----------|
|------------|------------|------3-----|------------|
|2-----------|0-----------|------------|0-----------|
|------------|------------|0-----------|------------|


|------------|
|------------|
|2-----------|
|------------|
|0-----------|
|------------|

--
 Justin Clarke  jbclarke@tubbs.equinox.gen.nz
     ----- #include witty_remark.h -----

Other versions of Greensleeves

GreensleevesChords
Greensleeves ukuleleChords
Greensleeves fantasyTabs

Almost there ...

Sign in to get your own page with links to favourite songs and more. You are just one click away...

Login with Facebook Login with Google