Log in

One click and you are in

Login with Facebook Login with Google

Why sign up and log in

Guitar Tabs Explorer
Misc Traditional tabs for Clementine

Guitar tabs

"Clementine"
transcribed by Stany


'All my own work'

had a toy guitar which played this song when I was a little... and
batteries would always run out...
So here it is ... for guitar
     e|---------|--------------------|----------------------
     A chord diagramBB|---------|--------------------|----------------------
     A chord diagramG+G|-1----1--|-1---------5----5---|-5----1----1----5-----
     A chord diagramD MajorD|---------|------1-------------|----------------------
     A chord diagramA augmentedA|---------|--------------------|----------------------
     A chord diagramE MajorE|---------|--------------------|----------------------
                                                                      

                                                                     
e|---------------------|------------------|--------------------|---------
A chord diagramBB|---------------------|------------------|--------------------|---------
A chord diagramG+G|-8----8----6----5----|--3-----3----5----|--6----6----5----3--|--5------
A chord diagramD MajorD|---------------------|------------------|--------------------|---------
A chord diagramA augmentedA|---------------------|------------------|--------------------|---------
A chord diagramE MajorE|---------------------|------------------|--------------------|---------

                                                                  
e---------------|----------------------|--------|
B---------------|----------------------|--------|
G1----1----5----|--3---------0----3----|--1-----|
D---------------|-------1--------------|--------|
A---------------|----------------------|--------|
E---------------|----------------------|--------|

with harmony~

e|-5----7----|-8----8----7----5----|-7----0----3----7----|-5-------------
A chord diagramBB|-----------|-7----7--------------|-8----8--------------|-7----3--------
A chord diagramG+G|-----------|---------------------|---------------------|---------------
A chord diagramD MajorD|-----------|---------------------|---------------------|---------------
A chord diagramA augmentedA|-----------|---------------------|---------------------|---------------
A chord diagramE MajorE|-----------|---------------------|---------------------|---------------
     

                      
e------5----|-3-----|-3----3--|-3---------7----7---|-7--------------7-----
B-7---------|-3-----|---------|------3----8----7---|-5----8----8----------
G-----------|-4-----|---------|--------------------|------7---------------
D-----------|-------|---------|--------------------|----------------------
A-----------|-------|---------|--------------------|----------------------
E-----------|-------|---------|--------------------|----------------------
    
 
       
e|-10---10---8----7----|-------------7----|--8----8----7----5--|--7------
A chord diagramBB|-12---8----10---8----|--10----10--------|--8----8----7-------|--8------
A chord diagramG+G|---------------------|--11--------------|--------------------|---------
A chord diagramD MajorD|---------------------|------------------|--------------------|---------
A chord diagramA augmentedA|---------------------|------------------|--------------------|---------
A chord diagramE MajorE|---------------------|------------------|--------------------|---------
 

                                                             
e-0----3----7----|--5--------------5----|--3-----|--3----3--|--3----------
B-8----5---------|--7----3----7---------|--5-----|----------|-------3-----
G----------------|----------------------|--7-----|----------|-------------
D----------------|----------------------|--------|----------|-------------
A----------------|----------------------|--------|----------|-------------
E----------------|----------------------|--------|----------|-------------
                      

                                                 
e-7----7---|--7--------------7----|--10---10---8----7----|--0-------------
B-8----7---|--5----8----8---------|--9-------------------|--10------------
G----------|-------7--------------|----------------------|----------------
D----------|----------------------|----------------------|----------------
A----------|----------------------|----------------------|----------------
E----------|----------------------|----------------------|----------------
                               

                                                    
e-5----7----|--8----8----7----5--|--7----0----3----7----|--5--------------
B-----------|--8----8----7-------|--8----8----5---------|--7----3---------
G-----------|--------------------|----------------------|-----------------
D-----------|--------------------|----------------------|-----------------
A-----------|--------------------|----------------------|-----------------
E-----------|--------------------|----------------------|-----------------
         

              
e------5----|--3-----3----3--|--3---------7----7---|--7-------------------
B-7---------|--5-------------|-------3----8----7---|--5----8----8---------
G-----------|--7-------------|---------------------|-------7--------------
D-----------|----------------|---------------------|----------------------
A-----------|----------------|---------------------|----------------------
E-----------|----------------|---------------------|----------------------
             

                  
e-7----|--10---10---8----7----|-------------7----|--8----8----7----5--|---
B------|--12---8----10---8----|--10----10--------|--8----8----7-------|---
G------|----------------------|--11--------------|--------------------|---
D------|----------------------|------------------|--------------------|---
A------|----------------------|------------------|--------------------|---
E------|----------------------|------------------|--------------------|---

                                                          
e-7----0----3----7----|--5--------------5----|--3-----|--3----3--|--3-----
B-8----8----5---------|--7----3----7---------|--5-----|----------|--------
G---------------------|----------------------|--7-----|----------|--------
D---------------------|----------------------|--------|----------|--------
A---------------------|----------------------|--------|----------|--------
E---------------------|----------------------|--------|----------|--------
                   

                                              
e------7----7---|--7--------------7----|--10---10---8----7----|-----------
B-3----8----7---|--5----8----8---------|--9-------------------|-----------
G---------------|-------7--------------|----------------------|-----------
D---------------|----------------------|----------------------|-----------
A---------------|----------------------|----------------------|-----------
E---------------|----------------------|----------------------|-----------
             

                                                    
e-0--------5----7----|--8----8----7----5--|--7----0----3----7----|--5-----
B-10-----------------|--8----8----7-------|--8----8----5---------|--7-----
G--------------------|--------------------|----------------------|--------
D--------------------|--------------------|----------------------|--------
A--------------------|--------------------|----------------------|--------
E--------------------|--------------------|----------------------|--------
                     

                  
e-----------5----|--3-----19----------------------------------------------
B-3----7---------|--5-----20----------------------------------------------
G----------------|--7-----------------------------------------------------
D----------------|--------------------------------------------------------
A----------------|--------------------------------------------------------
E----------------|--------------------------------------------------------
                      


... In a cavern, in a canyon,
Excavating for a mine, Dwelt a miner, forty-niner And his daughter
Clementine.

Oh my darling, oh my darling Oh my darling,
Clementine Thou art lost and gone forever,
Dreadful sorry, Clementine....

... In my dreams she still doth haunt me, Robed in garments soaked in
brine; Though in life I used to hug her, Now she's dead, I draw the line.

Almost there ...

Sign in to get your own page with links to favourite songs and more. You are just one click away...

Login with Facebook Login with Google