Log in

One click and you are in

Login with Facebook Login with Google

Why sign up and log in

Guitar Tabs Explorer
Misc Traditional tabs for Chopsticks

Guitar tabs

This is the tab to the traditional piano tune, Chopsticks.
Tabbed by Brent Long(blong@taurus.oursc.k12.ar.us).
                               /--------1--------\ /--2---
E-|----------------------------|-----------------||-------------------|
B-|----------------------------|----------------.||-------------------|
G-|-0-0-0-0--0-0-0-0--4-4-4-4--|-5----5-4--2-0---||--5----------------|
D-|-3-3-3-3--2-2-2-2--0-0-0-0--|--------0--2-3--.||-------------------|
A-|----------------------------|-3----3----------||--3----------------|
E-|----------------------------|-----------------||-------------------|

                             Repeat all as desired, faster each time.
E-||----------------------------------------------------||------------|
B-||.-5-3--1-0-----------------------------------------.||------------|
G-||--5-4--2-0--2-0--0-0-0-0-2-0------------0-------2---||------------|
D-||.-----------3-2--2-2-2-2-3-2-3--3-3-3-3-2-3-2-3-0--.||------------|
A-||-----------------------------5--5-5-5-5---5-3-5-----||------------|
E-||----------------------------------------------------||------------|
                                                      Repeat
                                                       sign

Almost there ...

Sign in to get your own page with links to favourite songs and more. You are just one click away...

Login with Facebook Login with Google