Log in

One click and you are in

Login with Facebook Login with Google

Why sign up and log in

Guitar Tabs Explorer
Misc Traditional tabs for Anthem of groningen

Guitar tabs

For all the people who are a fan of Groningen, the most beautiful
region, and city, in the Netherlands!

Some of the parts may not be completely correct, because the tab
is partially based on a former edit of the anthem by Pe Daalemmer
& Rooie Rinus...
 |----------------------------------|
 |----------------------------------|
 |--------------10------14--12--10--|
 |--10--10--10------10--------------|
 |----------------------------------|
 |----------------------------------|
 Van lauwerszee...

 |----------------------------------|
 |------10------10--14--12----------|
 |--10------10----------------------|
 |----------------------------------|
 |----------------------------------|
 |----------------------------------|
 Van Drenthe...

 |----------------------------------------------------|
 |--10--8--8--8--12--9--7--5--9--7--9--7--5--4--2--0--|
 |----------------------------------------------------|
 |----------------------------------------------------|
 |----------------------------------------------------|
 |----------------------------------------------------|
 Doar gruit, doar bluit...

 |--------------------------|--------------------------|
 |--0--7--7--7--0--0--0--5--|--0--7--7--7--0--0--0--9--|
 |--------------------------|--------------------------|
 |--------------------------|--------------------------|
 |--------------------------|--------------------------|
 |--------------------------|--------------------------|
 Ain pronkjewail...          Is Grunn...

 |-----------------------------------------------------|
 |--5--10--10--9--5--14--14--12--10--9--10--9--7--5----|
 |-----------------------------------------------------|
 |-----------------------------------------------------|
 |-----------------------------------------------------|
 |-----------------------------------------------------|
 Ain pronkjewail...


By Martijn Knol

Almost there ...

Sign in to get your own page with links to favourite songs and more. You are just one click away...

Login with Facebook Login with Google