Log in

One click and you are in

Login with Facebook Login with Google

Why sign up and log in

Guitar Tabs Explorer
Misc Television tabs for Wwe raw one of a kind

Wwe Raw One Of A Kind tab by Misc Television

Misc Television tabs for Wwe raw one of a kind

Guitar tabs with lyrics

Performed by: Breaking Point

Tabbed by: Leviathon <leviathon_019@yahoo.com>
  This is the version you hear when RVD makes his
entrance.
!!!!!!!!!!NOT THE FORCEBLE ENTRY VERSION!!!!!!!!!!


Tuning: Down 1/2 step (I usually just leave it in
standard)
Effect: Overdriven or gain sounds good either way.

GUIDE:
      {pm}  Palm mute

      { \}  slide up

      { /}  slide down


        I was just messin around one day and figured
this out.
Please feel free to mail me with any corrections and
or feedback.



Intro: Wierd vibrato sound in background Guitar is
fuzzed:

................ONE OF A chord diagramA augmentedA
KIND...........................

:.....PM.........:
[---------------------------------------------------------------]
[---------------------------------------------------------------]
[---------------------------------------------------------------]
[-22--22--22--22------------------------------------------------]
[-22--22--22--22------------------------------------------------]
[-00--00--00--00-------------\15--------------------------------]

Main Riff: Play through 6 times, add wah effect on 4th
go around

    {pm}    {pm}    {pm}                {pm}    {pm}
 {pm}
[---------------------------------------------------------------]
[---------------------------------------------------------------]
[---------------------------------------------------------------]
[2---2-2--5--2-2--5--2-2--5--5-4-3---2---2-2--5--2-2--5--2-2--5-]
[2---2-2--5--2-2--5--2-2--5--5-4-3---2---2-2--5--2-2--5--2-2--5-]
[0---0-0--3--0-0--3--0-0--3--3-2-1---0---0-0--3--0-0--3--0-0--3-]


Chorus: Play 4 times

"The fear I see when I look in your eyes....
 pm             pm pm      pm pm
[---------------------------------------------------------------]
[---------------------------------------------------------------]
[---------------------------------------------------------------]
[22------5---\8---------/7--------/6-------5-4-3----------------]
[22------5---\8---------/7--------/6-------5-4-3----------------]
[00--0---3---\6--6--6---/5--5--5--/4-------3-2-1----------------]


Well that is pretty much it, mostly repetitive.


Intro

main riff
corus

main riff

intro <interlude>

main riff

chorus

main riff
done.


I play it in timing of 123


  "THE SELF PROCLAIMED KING OF EXTREME MR.MONDAY NIGHT
ROB VAN DAM"
   !!!!!!!!!!!!!!!!!!!!"THE WHOLE FUCKIN SHOW"!!!!!!!!!!!!!!!!!!!!

Almost there ...

Sign in to get your own page with links to favourite songs and more. You are just one click away...

Login with Facebook Login with Google