Log in

One click and you are in

Login with Facebook Login with Google

Why sign up and log in

Guitar Tabs Explorer
Misc Television chords for Trigger happy tv

Guitar chords

Trigger Happy TV theme song on Comedy Central.

Standard tuning as far as I know.

~~ = Slide


Riff A chord diagramA augmentedA

-------------------------------------------------------

-------------------------------------------------------

------------------------------------------7-----9---9--

-----7---------7---5--------5---7---------7-----9---9--

-----7---------7---5--------5---7---------5-----7---7--

-----5---------5---3--------3---5----------------------



Riff A chord diagramBB


-------------------------------------------------------

-------------------------------------------------------

----------------------------------7----6---5---5-------

-------7---------7---5--------5---7----6---5---5-------

-------7---------7---5--------5---5----4---3---3-------

-------5---------5---3--------3------------------------



Chorus

A chord diagramA augmentedA

-------------------------------------------------------

-------------------------------------------------------

------------------------------------------7~~~9---9999-

-------7777--------5555--------77---------7~~~9---9999-

-------7777--------5555--------77---------5~~~7---7777-

-------5555--------3333--------55----------------------



Chorus

A chord diagramBB


-------------------------------------------------------

-------------------------------------------------------

--------------------------------77---6--5555-----------

-------7777---------5555--------77---6--5555-----------

-------7777---------5533--------55---4--3333-----------

-------5555---------3333-------------------------------


Listen to the TV show to get the exact rhythm and feel.


Tabbed by Joseph Golka

This is my first tab so go easy on me.


________________________________________________________________________________

Almost there ...

Sign in to get your own page with links to favourite songs and more. You are just one click away...

Login with Facebook Login with Google