Log in

One click and you are in

Login with Facebook Login with Google

Why sign up and log in

Guitar Tabs Explorer
Misc Television tabs for Trailer park boys theme song

Trailer Park Boys Theme Song tab by Misc Television

Misc Television tabs for Trailer park boys theme song

Guitar tabs with lyrics

title: Trailor Park Boys theme song
tabbed by: greg dmochowski

this is an arrangement for the theme song.
as in, it's one way of playing it. though it requires some stretching at times, it comes out quite nicely.

as with all tabs, you should listen to the song to get the feel for the timing and try to fit what i have written to what you hear.

enjoy!

~ means that i rake the strings with my right hand.

for the xx's:  these are mostly just an indication of pausing.  but in the first bar, i maintain a barre on the 5th fret with my index finger and smack my right hand
against the strings in a percussive way.  ideally, try to get the sound of the 5th fret g and b strings to come out as well.  though this only really flies for the first bar.
  A chord diagramC majorC				A chord diagramDmDm
    ~
|---------8-7------5----------|------10-9-------8-----7-----8-----7-----8-----7----|
|---5-5-8------x--8---x-----x-|----6-------x--10---x-----8-----x-----x-----x-----8-|
|---5----------x------x-----x-|---7--------x-------x-----------x-----x-----x-------|
|---5-------5------------5----|--7------7-------------7-----------7-----------7----|
|-----------------------------|-5---------------5-----------5-----------5----------|
|-8----------------8----------|----------------------------------------------------|

   A chord diagramC majorC		A chord diagramDmDm
   ~
|--3------5--7-|-8-5-----------10--------------|
|--5-----------|-6---6---------7--10-7---------|
|--5-----------|-5-----7-------7-------7-------|
|-/5-----------|-7-------7-----7---------7-----|
|--------------|-5---------5--------------9----|
|--------------|-------------------------------|

here repeat the very first bar again before going on...

				~		~
|-5-------5----|------------|---------8-7-------8-|
|-6----------6-|-3----------|---5-5-8------x--8-5-|
|-5------------|-4-----5--4-|---5----------x----5-|
|-7------------|-5----------|---5-------5-------5-|
|-8------------|-5----------|---------------------|
|--------------|------------|-8-------------------|

Almost there ...

Sign in to get your own page with links to favourite songs and more. You are just one click away...

Login with Facebook Login with Google