Log in

One click and you are in

Login with Facebook Login with Google

Why sign up and log in

Guitar Tabs Explorer
Misc Television bass tabs for Toss a coin to your witcher

Toss A Coin To Your Witcher bass tab by Misc Television

Misc Television bass tabs for Toss a coin to your witcher

Bass tabs

G---------9--7----7--9--9--7------
D---7--10------10------------10--9
A---------------------------------
E---------------------------------

G--------9--7---------------------
D--10--7------10--9--10--5/7/10---
A---------------------------------
E---------------------------------

G--------9--7----7--9--12--9--7--9
D--7--10------10------------------
A---------------------------------
E---------------------------------

G--9--9--12--14
D--------------
A--------------
E--------------

Almost there ...

Sign in to get your own page with links to favourite songs and more. You are just one click away...

Login with Facebook Login with Google