Three Stooges by Television Music

Three Stooges tab by Television Music

Guitar tabs

The Three Stooges: melody

||-------|----0--0--|----0--0--|----4--2--0--|----0--5--|----------|
||-------|----------|----------|-------------|----------|----7--5--|
||-------|----------|----------|-------------|----------|----------|
||-------|----------|----------|-------------|----------|----------|
||-------|----------|----------|-------------|----------|----------|
||-------|----------|----------|-------------|----------|----------|


-------4--|----2--0--|----0--5--|-------|----------|----4--2--0--|
----5-----|----------|----------|-------|----5--5--|-------------|
----------|----------|----------|----6--|----------|-------------|
----------|----------|----------|-------|----------|-------------|
----------|----------|----------|-------|----------|-------------|
----------|----------|----------|-------|----------|-------------|


----0--5--|-------|----------------|----------------|--------------|
----------|-------|-------7--7--7--|----7--5--3-----|-------0--2---|
----------|----6--|----7-----------|-------------4--|----2---------|
----------|-------|----------------|----------------|--------------|
----------|-------|----------------|----------------|--------------|
----------|-------|----------------|----------------|--------------|


-----|-------------------|------10--||
--2--|----3--5--7--5--7--|----------||
-----|-------------------|----7-----||
-----|-------------------|----------||
-----|-------------------|----------||
-----|-------------------|----------||

Tabbed by the Hellmark
hellmark@usa.net

Find guitar tabs and chords

A B C D E F G H I J K L M N O P Q R S T U V W X Y Z #