Log in

One click and you are in

Login with Facebook Login with Google

Why sign up and log in

Guitar Tabs Explorer
Misc Television bass tabs for The professionals

The Professionals bass tab by Misc Television

Misc Television bass tabs for The professionals

Bass tabs

THE PROFESSIONALS - Theme Tune
----------------------------------------------------------------------------

Tabbed By : WibbleWobble
e-mail: organisedchaos@talktalk.net
Tuning: standard EADG

Theme composed by Laurie Johnson. From the TV show starring Lewis Collins,
Gordon Jackson and Martin Shaw 1977-1981

G|--------------3-5-5-7-5-7-3----------------------3-5-5-7-5-7-3-------------|
D|-----3-55-3-5---------------5---3-55----3-55-3-5---------------5---3-55----|
A|------------------------------5----------------------------------5---------|
E|-3~------------------------------------------------------------------------|

G|-----------------------3------1-3-1-3-3-1-3--5-------3-5-3-5-5-3-5--7------|
D|-6------4-6-4-6-6-4-6-----1-3--------------------3-5-------------------5-7-|
A|------4-----------------1----------------------3---------------------5-----|
E|--4-6----------------------------------------------------------------------|

G|-5-7-5-7-7-5-7-------------------------------------------------------------|
D|---------------------------------------------------------------------------|
A|---------------------------------------------------------------------------|
E|---------------------------------------------------------------------------|
there is a little break where the bass doesn't do much just sounds like
maybe throwing in a couple of open notes here and there then it repeats as
above. Just a last little bit right at the end go for a really big finish:

G|---------------------------------------------------------------------------|
D|------3~--3-5-5------------------------------------------------------------|
A|---5~----------------------------------------------------------------------|
E|---------------------------------------------------------------------------|

Almost there ...

Sign in to get your own page with links to favourite songs and more. You are just one click away...

Login with Facebook Login with Google