Log in

One click and you are in

Login with Facebook Login with Google

Why sign up and log in

Guitar Tabs Explorer
Misc Television chords for The mandalorian - main theme ukulele

The Mandalorian - Main Theme Ukulele chords by Misc Television

Misc Television chords for The mandalorian - main theme ukulele

Guitar chords

Tuning: G C E A (G C E A)


Section Arrangement:

Chorus

Intro

Verse

Chorus    Chords A Am B C D Dm E Em F

Verse

Bridge

Chorus

Outro


Chorus (Flute/Shakuhachi):
A |---5---5-------5---5-----5-------5-------5------|
E |------------------------------------------------|
C |------------------------------------------------|
G |-0---0-------0---0-----0-------0-------0--------|

A |---8---8-------8---8-----8-------8-------8------|
E |------------------------------------------------|
C |------------------------------------------------|
G |-0---0-------0---0-----0-------0-------0--------|

A |---1---1-------1---1-----1-------1-------1------|
E |------------------------------------------------|
C |------------------------------------------------|
G |-0---0-------0---0-----0-------0-------0--------|

A |---3---3-------3---3-----3-------3-------3------|
E |------------------------------------------------|
C |------------------------------------------------|
G |-0---0-------0---0-----0-------0-------0--------|

 Whistle:
A |-10---15----------------------------------------|
E |------------------------------------------------|
C |------------------------------------------------|
G |------------------------------------------------|

 Intro (Guitar):
A |--------------------------------------------------|
E |----------------------------3----1----------------|
C |-0-3---2------------------0-----------------------|
G |--------------------------------------------------|

A |------------------------------------------------|
E |----------------------------3---1---------------|
C |-0-3---2------------------0---------------------|
G |------------------------------------------------|

Verse (Horns):
A |-----------------3-1----------------------------|
E |-3-3-3---3-3-3-----------1-3-4---6-4-3-1--------|
C |------------------------------------------------|
G |------------------------------------------------|

A |-----------------3-5-----1-3-5---6-5-3-1--------|
E |-3-3-3---3-3-3----------------------------------|
C |------------------------------------------------|
G |------------------------------------------------|

A |-10-8-----------------------8----10-14---15-----|
E |--------10-8--------------9---10----------------|
C |---------------10-7-----8-----------------------|
G |------------------------------------------------|

 Bridge (Horns):
A |-1-3-4---3-4---3-4---6-4-3-1--------------------|
E |------------------------------------------------|
C |------------------------------------------------|
G |------------------------------------------------|

A |---1-1-1---1-1-1-----1-2------------------------|
E |-1-----------------4-----2----------------------|
C |---------------------------3--------------------|
G |------------------------------------------------|

A |---1-1-1---1-1-1-----1-3-----5-----7-1----------|
E |-1-----------------4-----3-1---4-3-----4--------|
C |------------------------------------------------|
G |------------------------------------------------|

A |-8-7-5-7-------5-7-8---10-8-8--7----------------|
E |------------------------------------------------|
C |------------------------------------------------|
G |------------------------------------------------|

A |-5-7-8---7-5-5-----3-5-3---1--------------------|
E |-----------------------------4-3-4--------------|
C |------------------------------------------------|
G |------------------------------------------------|

A |-8-7-5-7-------5-7-8---10-8-8--7----------------|
E |------------------------------------------------|
C |------------------------------------------------|
G |------------------------------------------------|

A |-5-7-8---7-5-5-----3-5-3------------------------|
E |---------------------------4-1-----4-3-0--------|
C |-------------------------------2----------------|
G |------------------------------------------------|

A |-1-3-8---1-3-10---3-5-11---5-11-----------------|
E |------------------------------------------------|
C |------------------------------------------------|
G |------------------------------------------------|


Outro (Flute/Shakuhachi, Bells):
(repeated)
A |-3-6---3-5---3-6-3-5----------------------------|
E |------------------------------------------------|
C |------------------------------------------------|
G |------------------------------------------------|

(repeated)
A |---5-----3-----5---3----------------------------|
E |------------------------------------------------|
C |------------------------------------------------|
G |-0-----0-----0---0------------------------------|

(repeated)
A |-3-6-8-----5-6-10-------------------------------|
E |------------------------------------------------|
C |------------------------------------------------|
G |------------------------------------------------|

Almost there ...

Sign in to get your own page with links to favourite songs and more. You are just one click away...

Login with Facebook Login with Google