Log in

One click and you are in

Login with Facebook Login with Google

Why sign up and log in

Guitar Tabs Explorer
Misc Television bass tabs for The home depot - lets do this

The Home Depot - Lets Do This bass tab by Misc Television

Misc Television bass tabs for The home depot - lets do this

Bass tabs

Tuning: Standard (E A D G)

Difficulty: Novice

Just repeat this one riff:

G|------7---5---------|
D|-------------5--7---|
A|--0-0---0-----------|
E|--------------------|

G|------7---5---------|
D|-------------5--7---|
A|--0-0---0-----------|
E|--------------------|

G|------7---5---------|
D|-------------5--7---|
A|--0-0---0-----------|
E|--------------------|

G|------7---5---------|
D|-------------5--7---|
A|--0-0---0-----------|
E|--------------------|

G|------7---5---------|
D|-------------5--7---|
A|--0-0---0-----------|
E|--------------------|

Almost there ...

Sign in to get your own page with links to favourite songs and more. You are just one click away...

Login with Facebook Login with Google