Log in

One click and you are in

Login with Facebook Login with Google

Why sign up and log in

Guitar Tabs Explorer
Misc Television tabs for The flintstones

Guitar tabs

(I'm playing it here in A chord diagramC majorC major; it might be in a different key)


-----------------8----------------------------------------------------
--8-------------------10---8------------8-------------8---------------
-------------------------------------------10-9-9-10-------7-9--------
--------10-----------------------10---------------------10------------
----------------------------------------------------------------------
----------------------------------------------------------------------
Flint-stones..(etc, I don't know all the words)

-----------------8----------------------------------------------------
--8-------------------------------------8-------------8----7----------
----------------------10---8--------------10-9-9-10-----10---10-------
--------10-----------------------10-----------------------------------
----------------------------------------------------------------------
----------------------------------------------------------------------

--7----------8-7-7--------7-----------------7-------------------------
-------------------10-10----10-------10-------10-10-8-8-10-8----------
--------9--------------------------------7----------------------------
----------------------------------------------------------------------
----------------------------------------------------------------------
----------------------------------------------------------------------


--8-------------8-----------------------------------------------------
--------------------10---8--------------8-------------8---------------
--------------------------------------------10-9-9-10------7----------
--------10-----------------------10---------------------10-----------
----------------------------------------------------------------------
----------------------------------------------------------------------


--------------------------7--8--10--8---------------------------------
-------8-----------8--10----------------------------------------------
--9-10------7---------------------------------------------------------
---------10-----------------------------------------------------------
----------------------------------------------------------------------
----------------------------------------------------------------------

oh, and here is a little something that sorta sounds like the
"accordion" sound that Wile E. Coyote makes when he gets squashed
into an accordion by one of his schemes to kill the roadrunner:

-----7---8---9---8---
----11--12--13--12---
---------------------  (Repeat a few times)
---------------------
---------------------
---------------------

Enjoy.

Anyone know The Jetons theme or Gilligan's Island?

--
Ali Brown


The Flintstones


e--------------10------------------------------------------------------
B--10---------------12---10----------10---------------------10---------
G------------------------------------------12-11-11---12----------9-11-
D-------12--------------------12-------------------------------12------
A----------------------------------------------------------------------
E----------------------------------------------------------------------
 Flintstones..

e-----------10---------------------------------------------------------
B--10-----------12--10-------10----------------------10----------------
G-----------------------------------12-11---11---12--------9-----------
D-------12-------------12-------------------------------12---12--------
A----------------------------------------------------------------------
E----------------------------------------------------------------------
  From ...

e--9---------10---9---9-----------9---------
B-----------------------12---12--------12---
G-------11----------------------------------
D-------------------------------------------
A-------------------------------------------
E-------------------------------------------
 Let's ..

e-------------9-----------------------------
B--12-----------12-12-10--10-----12--10-----
G---------9---------------------------------
D-------------------------------------------
A-------------------------------------------
E-------------------------------------------
 Through ...

e--------------10------------------------------------------------------
B--10---------------12---10---------10--------------10-----------------
G---------------------------------------12-11-11-12---------9----------
D--------12-------------------12-----------------------12--------------
A----------------------------------------------------------------------
E----------------------------------------------------------------------
  When ..,

e-----------------------------------------10--12--10-------------------
B------------10-----------------------10-------------------------------
G--11-----12----------9-----11-----12----------------------------------
D----------------12----------------------------------------------------
A----------------------------------------------------------------------
E----------------------------------------------------------------------
  You'll ...

Almost there ...

Sign in to get your own page with links to favourite songs and more. You are just one click away...

Login with Facebook Login with Google