Log in

One click and you are in

Login with Facebook Login with Google

Why sign up and log in

Guitar Tabs Explorer
Television Music tabs for The crystal maze

Tabs

Theme: The Crystal Maze - Channel 4 Television
 Title: Forcefield
 Written By: Zack Lawrence
 Tabbed By: Lee Thomas Robson <The_Axis@gmx.co.uk> 05/12/2002

 Tuning: Half-Step Down (A chord diagramEb MajorEb)

 - = Palm mute (right hand)
 ^ = Accent

 Opening Theme:
 eb|---------|--------0-----1---------------------------------------|
 bb|---------|------3-----------------------------------------------|
 gb|-2-2-2-2-|:---2-----------3-------------------------------------|
 db|-0-0-0-0-|:-0-------------3-3-3-3-3-3-3-3-3-3-3-3-3-3-3-3-4-4-4-|
 ab|---------|------------------1-1-1-1-1-1-1-1-1-1-1-1-1-1-1-4-4-4-|
 eb|---------|------------------------------------------------2-2-2-|
     - - - -                    - ^ - - ^ - - ^ - - ^ - - ^ - ^ ^ ^
 |-----2-4-----5---5-4-2-4-----|--------------|
 |---2-------------------------|--------------|
 |-----------------------------|-------------:|
 |-4---------------------------|-6---6--6--6-:|
 |-----------------------------|-4---4--4--4--|
 |-----------------------------|--------------|
                                 ^   ^  ^  ^
 |---------------------------------------------------------2----3---|
 |--------------1------2-------------4------5------------5----------|
 |------------3--------------------6-------------------4------------|
 |-3-3-3----3-----------2-2-2----6------------2-2-2--2--------------|
 |-1-1-1--1-------------0-0-0--4--------------2-2-2-----------------|
 |--------------------------------------------0-0-0-----------------|
   ^ ^ ^                ^ ^ ^                 ^ ^ ^
 |-2---------------|-----------------| |-----------x3| |------|
 |---4-1-0---------|-3-1-0-----------| |-------------| |------|
 |---------2-0-----|-------2-0-------| |-------------| |------|
 |-------------4-2-|-----------4-2-0-| |-----2-4---5-| |-2----|
 |-----------------|-----------------| |---2---------| |-2----|
 |-----------------|-----------------| |-0-----------| |-0----|

Almost there ...

Sign in to get your own page with links to favourite songs and more. You are just one click away...

Login with Facebook Login with Google