Spongebob Squarepants Theme by Television Music

Spongebob Squarepants Theme tab by Television Music

Guitar tabs

Spongebob Squarepants Theme Song
composed by Mark Harrison
Tabbed by Michael in S.A.
This transcription is all my own work.
I got it off of listening to the god forsaken song
about 10 thousand times while my kids veg out in front
of the boob tube.

On guitar it can be played as a country tune ...

Play the C~Rs something like:

----0-----0-----
----1-----1-----
----0-----0----- 4x
----2-----2-----
--3-------------
--------3-------

And the F~Rs something like this:

----0-----0-----
----1-----1-----
----2-----2----- 4x
--3-------------
--------3-------
----------------

The 1st part of the song is:

Who ....
Who [C] lives ...
[F] Absorbent ...
If [C] nautical ...
Then [F] drop ...

Ready? For a change that is?
Just play regular chords thusly:

[C] Sponge [A] Bob [G] Square [E] Pants 3x
[G] Sponge [A] Bob [B] Square [C] Pants

The noseflute lick at the end can be played like this:


--------------------8---------------
-8/10\8-----------8-----------------
---------8-9------------------------
--------------10--------------------
------------------------------------
------------------------------------

Find guitar tabs and chords

A B C D E F G H I J K L M N O P Q R S T U V W X Y Z #