GuitarTabsExplorer icon
GuitarTabsExplorer icon

Log in

Songbook

  • Log in to add and see bookmarks

Last visited songs

  • No songs visited yet...
Robin by Television Music

Tabs

Robin (the Hooded Man) - Clannad
   ~~~~~~~~~~~~~~~~~~~~~~
   From "🏷Legend" and "Past Present".
   Arranged and tabbed by John Kean.

   This is just the basics. Play around a bit with arpeggios,
    finger-picking patterns, slides etc. This is supposed
    to be Medieval-sounding music, so improvisation is the key.

   12/8 time (timing shown below tablature).


     Chord diagramAsus2Asus2            Chord diagramA augmentedA

   ||---------------------------|--------------------------|
   ||--2-----------------3p2----|------2-------------------|
   ||--------4-----4---------2--|--4-------2---------------|
   ||--------2-----2------------|--------------2-----------|
   ||--0------------------------|--0-----------------------|
   ||---------------------------|--------------------------|
     , . . , . . , . . , . .   , . . , . . , . . , . .

    Chord diagramF/CF/C     Chord diagramG/BG/B      Chord diagramA augmentedA
   |--------------------------|--------------------------|
   |--------------------------|--------------------------|
   |--2-----------0-----------|--------------------------|
   |--3-----------0-------0---|--------------------------|
   |--3-----------2-----------|--4-5-7-------------------|
   |--------------------------|--5-----------------------|
    , . . , . . , . . , . .  , . . , . . , . . , . .

    Chord diagramAsus2Asus2            Chord diagramA augmentedA
   |---------------------------|--------------------------|
   |--2-----------------3p2----|----2-----2---------------|
   |--------4-----4---------2--|--4-----4---2-------------|
   |--------2-----2------------|------2-------2-----------|
   |--0------------------------|--0-----------------------|
   |---------------------------|--------------------------|
    , . . , . . , . . , . .   , . . , . . , . . , . .

    Chord diagramF/CF/C     Chord diagramG/BG/B       Chord diagramA augmentedA
   |---------------------------|--------------0-------0--|
   |---------------------------|------------------3------|
   |--2-----------0------------|-------------------------|
   |--3-----------0---------0--|-------------------------|
   |--3-----------2------------|--5p4-0------------------|
   |---------------------------|--5----------------------|
    , . . , . . , . . , . .   , . . , . . , . . , . .

    Chord diagramDm7Dm7            Chord diagramE minorEm
   |--5-----8-----------5-----|--------0-----------------|

   |-------10-----------6-----|--------0-----------3-----|
   |-------10-----------7-----|--------0-----------------|
   |--0-----------------------|--2-----------------------|

   |--------------------------|--------------------------|

   |--------------------------|--------------0-----------|

    , . . , . . , . . , . .  , . . , . . , . . , . .
    Chord diagramA augmentedA         Chord diagramG+G    Chord diagramA augmentedA
   |------0-------------------|--------------0-------0---|
   |--2h3---------------0-----|--2---------------3-------|
   |--------------------0-----|--2-----------------------|
   |--------------------0-----|--2-----------------------|
   |--0-----------------------|--0-----------------------|
   |--------------------------|--------------------------|
    , . . , . . , . . , . .  , . . , . . , . . , . .


    Chord diagramDm7Dm7            Chord diagramE minorEm
   |--5-----8-----------5-----|--------0-----------------|
   |-------10-----------6-----|--------0-----------3-----|
   |-------10-----------7-----|--------0-----------------|
   |--0-----------------------|--2-----------------------|

   |--------------------------|--------------------------|

   |--------------------------|--------------0-----------|

    , . . , . . , . . , . .  , . . , . . , . . , . .


    Chord diagramA augmentedA         Chord diagramG+G    Chord diagramA augmentedA
   |------0-------------------|--------------------------|
   |--2h3---------------0-----|--2-----------------------|
   |--------------------0-----|--2-----------------------|
   |--------------------0-----|--2-----------------------|
   |--0-----------------------|--0-----------------------|
   |--------------------------|--------------------------|
    , . . , . . , . . , . .  , . . , . . , . . , . .

    Chord diagramA augmentedA             Chord diagramA augmentedA
   |--9----------------10p9---|------9-------------------|
   |-------10----10--------10-|-12------10---------------|
   |--------9-----9-----------|--------------9-----------|
   |--------------------------|--------------------------|
   |--0-----------------------|--0-----------0-----0-----|
   |--------------------------|--------------------------|
    , . . , . . , . . , . .  , . . , . . , . . , . .


    Chord diagramF/AF/A     Chord diagramG/BG/B      Chord diagramA augmentedA

   |--5-----------3-----------|------0-------------------|
   |--6-----------3---------3-|--2h3--------10-----------|
   |--5-----------0-----------|------------------9-------|
   |--------------------------|---------------------12---|
   |--0-----0-----2-----2-----|--0-----------------------|
   |--------------------------|--------------------------|
    , . . , . . , . . , . .  , . . , . . , . . , . .


    Chord diagramA augmentedA             Chord diagramA augmentedA
   |--------9----------10p9---|------9-------------------|
   |-------10----10--------10-|-12------10---------------|
   |--------9-----9-----------|--------------9-----------|
   |-11-----------------------|--------------------------|
   |--0-----------------------|--0-----------0-----0-----|
   |--------------------------|--------------------------|
    , . . , . . , . . , . .  , . . , . . , . . , . .


    Chord diagramF/AF/A     Chord diagramG/BG/B      Chord diagramA augmentedA

   |--5-----------3-----------|--------------0-------0---|
   |--6-----------3---------3-|--3p2-------------3-------|
   |--5-----------0-----------|------2-------------------|
   |--------------------------|--------------------------|
   |--0-----0-----2-----2-----|--0-----------------------|
   |--------------------------|--------------------------|
    , . . , . . , . . , . .  , . . , . . , . . , . .


    Chord diagramDm7Dm7            Chord diagramE minorEm
   |--5-----8-----------5-----|--------0-----------------|
   |-------10-----------6-----|--------0-----------3-----|
   |-------10-----------7-----|--------0-----------------|
   |--0-----------------------|--2-----------------------|

   |--------------------------|--------------------------|

   |--------------------------|--------------0-----------|

    , . . , . . , . . , . .  , . . , . . , . . , . .


    Chord diagramA augmentedA          Chord diagramG+G   Chord diagramA augmentedA
   |------0-------------------|--------------0-------0---|
   |--2h3-----------------0---|--2---------------3-------|
   |----------------------0---|--2-----------------------|
   |----------------------0---|--2-----------------------|
   |--0-----------------------|--0-----------------------|
   |--------------------------|--------------------------|
    , . . , . . , . . , . .  , . . , . . , . . , . .


    Chord diagramDm7Dm7            Chord diagramE minorEm
   |--5-----8-----------5-----|--------0-----------------|
   |-------10-----------6-----|--------0-----------3-----|
   |-------10-----------7-----|--------0-----------------|
   |--0-----------------------|--2-----------------------|

   |--------------------------|--------------------------|

   |--------------------------|--------------0-----------|

    , . . , . . , . . , . .  , . . , . . , . . , . .


    Chord diagramA augmentedA         Chord diagramG+G    Chord diagramA augmentedA
   |------0-------------------|--------------------------||
   |--2h3---------------0-----|--2-----------------------||
   |--------------------0-----|--2-----------------------||
   |--------------------0-----|--2-----------------------||
   |--0-----------------------|--0-----------------------||
   |--------------------3-----|--------------------------||
    , . . , . . , . . , . .  , . . , . . , . . , . .

[ Privacy | About us ]

Welcome to the guitar community

Why join and log in?
- Get songbook with favourite songs
- Get custom made front page
- Submit chords and tabs
- Submit guitar-cover videos
- Get a lot of thumbs up for your work

Songbook

Last visited songs

Site
Home
Search
Community
Submit chords

Video

No video for this page. Check out how you can submit guitar-cover videos here

Search tabs and chords

Browse by artist

A B C D E F G H I J K L M N O P Q R S T U V W X Y Z #


Menu

Search

Video

Bookmark

Login