Log in

One click and you are in

Login with Facebook Login with Google

Why sign up and log in

Guitar Tabs Explorer
Misc Television tabs for Rhubarb and custard

Guitar tabs

Theme from Rhubarb and Custard by ?
Transcribed by sc94tdw@ex.ac.uk

h=hammer
\=slide down to 0
/=slide up to the note
|=stop abruptly

1 -----------------------------------------------------------------------
2 -----------------------------------------------------------------------
3 ------------------------------------------------------------slide------
4 --7h8h9-7--7h8h9-7--7h8h9-12-12-10---7h8h9-7--7h8h9-7---------7\-------
5 ------------------------------------------------------99-77-5----------
6 -----------------------------------------------------------------------
1 -slide------------slide------------------------------------------------
2 --/15--------------/15-------------------------------------------------
3 ------15-15-15-15------15-15-15-15---12-16-16-14-14--------------------
4 -----------------------------------------------------------------------
5 -----------------------------------------------------------------------
6 -----------------------------------------------------------------------


1 -----------------------------------------------------------------------
2 -slide-----------------------------------------------------------------
3 --/14--------------------------15-16-17--------------------------------
4 ------15-15-15-15-15-15-15-15------------------------------------------
5 -----------------------------------------------------------------------
6 -----------------------------------------------------------------------


1 -----------------------------------------------------------------------
2 ----------------------------7|stop abruptly----------------------------
3 ----------------------------7|-----------------------------------------
4 --7h8h9-7--7h8h9-7--99-77-5--------------------------------------------
5 -----------------------------------------------------------------------
6 -----------------------------------------------------------------------



- Rhubarb was sitting in the garden

Almost there ...

Sign in to get your own page with links to favourite songs and more. You are just one click away...

Login with Facebook Login with Google