Log in

One click and you are in

Login with Facebook Login with Google

Why sign up and log in

Guitar Tabs Explorer
Misc Television tabs for Ren and stimpy

Guitar tabs with lyrics

THE REN & STIMPY THEME SONG
                              "Dog Pound Hop"
                               Rhythm & Solo
                    Transcribed By Christopher J. Rizzo

          Here's my best shot at transcribing this very cool tune!
  INTRO:  I've attempted to indicate the rhythm by splitting each beat   =
          into 8th notes, and in a few parts 16th notes. If anyone has
          trouble with the timing grab your TV-remote, tune into Nick,
          and wait for R&S to grace your screen. Good luck!

       _____   _____   _____   _____   _____   _____   _____   _____
       |   |   |   |   |   |   |   |   |   |   |   |   |   |   |   |
       |   |   |   |   |   |   |   |   |   |   |   |   |   |   |   |
  A chord diagramE MajorE |--5---------------5---5---------|-5---------------5---5---------|
  A chord diagramBB |--5---------------5---5---------|-5---------------5---5---------|
  A chord diagramG+G |--6---------------6---6---------|-6---------------6---6---------|
  A chord diagramD MajorD |--7---------------7---7---------|-7---------------7---7---------|
  A chord diagramA augmentedA |--------------------------------|-------------------------------|   =

  A chord diagramE MajorE |--------------------------------|-------------------------------|

       _____   _____   _____   _____   _____   _____   _____   _____
       |   |   |   |   |   |   |   |   |   |   |   |   |   |   |   |
       |   |   |   |   |   |   |   |   |   |   |   |   |   |   |   |
  A chord diagramE MajorE |--7---------------7---7---------|-5---------------5---5---------|
  A chord diagramBB |--7---------------7---7---------|-5---------------5---5---------|
  A chord diagramG+G |--7---------------7---7---------|-6---------------6---6---------|
  A chord diagramD MajorD |--9---------------9---9---------|-7---------------7---7---------|
  A chord diagramA augmentedA |--------------------------------|-------------------------------|   =
  A chord diagramE MajorE |--------------------------------|-------------------------------|

       _____   _____   _____   _____   _____   _____   _____   _____
       |   |   |   |   |_| |   |  _|   |   |   |   |   |_| |   |  _|
       |   |   |   |   | | |   |   |   |   |   |   |   | | |   |   |
  A chord diagramE MajorE |--5---5---x---5---x-5---------x-|-5---5---x---5---x-5---------x-|
  A chord diagramBB |--5---5---x---5---x-5---------x-|-5---5---x---5---x-5---------x-|
  A chord diagramG+G |--6---6---x---6---x-6---------x-|-6---6---x---6---x-6---------x-|
  A chord diagramD MajorD |--7---7---x---7---x-7---------x-|-7---7---x---7---x-7---------x-|
  A chord diagramA augmentedA |--------------------------------|-------------------------------|   =
  A chord diagramE MajorE |--------------------------------|-------------------------------|

       _____   _____   _____   _____   _____   _____   _____   _____
       |   |   |   |   |_| |   |  _|   |   |   |   |   |_| |   |  _|
       |   |   |   |   | | |   |   |   |   |   |   |   | | |   |   |
  A chord diagramE MajorE |--7---7---x---7---x-7---------x-|-5---5---x---5---x-5---------x-|
  A chord diagramBB |--7---7---x---7---x-7---------x-|-5---5---x---5---x-5---------x-|
  A chord diagramG+G |--7---7---x---7---x-7---------x-|-6---6---x---6---x-6---------x-|o
  A chord diagramD MajorD |--9---9---x---9---x-9---------x-|-7---7---x---7---x-7---------x-|o
  A chord diagramA augmentedA |--------------------------------|-------------------------------|   =
  A chord diagramE MajorE |--------------------------------|-------------------------------|

I don't really want to write the blues chords that come before the solo
and I know the chords below aren't right but here is the just the solo =
anyways
and the rest may come later!

Ben Baryo (ben_baryo@hotmail.com)

E--------12-h14-17-17-17-15-14-p12-15-p14-p12-------|

B-13-h14--------------------------------------------|

G---------------------------------------------------|

D---------------------------------------------------|

A---------------------------------------------------|

E---------------------------------------------------|


E-12--------12--------------------------------------|

B----13-h14----13-13-13-p12-p10-13-13-13-p12-p10----|

G---------------------------------------------------|

D---------------------------------------------------|

A---------------------------------------------------|

E---------------------------------------------------|


E---------------------------10/1-p0-----------------|

B-13-13-12-12-10-8/1-1-1/10---------10--------------|

G---------------------------------------------------|

D---------------------------------------------------|

A---------------------------------------------------|

E---------------------------------------------------|


E----------------------11---14----------------------|

B-10-8------------9-10-12---14----------------------|

G------11-10-9-11------1----14----------------------|

D----------------------11---13----------------------|

A----------------------x----14----------------------|

E----------------------11---x-----------------------|

Almost there ...

Sign in to get your own page with links to favourite songs and more. You are just one click away...

Login with Facebook Login with Google