GuitarTabsExplorer icon
GuitarTabsExplorer icon

Log in

Songbook

  • Log in to add and see bookmarks

Last visited songs

    No songs visited yet...

Munsters by Television Music

Tabs

The Melody part should be keyed for a guitar, but the rhythem section is =
a direct tab of the organ music, so it might be best to rekey it for =
guitar.

The Munsters Theme: Melody

|-------|--|----------------------|-------------------|--------------
|-------|--|----------------------|-------------------|--------------
|-------|--|----------------------|-------------------|--------------
|-------|--|------------------2---|-------------------|--------------
|-------|--|------------1--2------|---3--2--0--2--0---|------0-------
|-------|--|---0--3--0------------|-------------------|---3-----3--2-
                                     =

--------|-------|----------------------|-------------------|--------
--------|-------|----------------------|-------------------|--------
--------|-------|----------------------|-------------------|--------
--------|-------|------------------2---|-------------------|--------
--------|-------|------------1--2------|---3--2--0-----0---|---2----
-0------|---0---|---0--3--0------------|------------3------|--------
  L                                 L
                                     =

--------------|-------|----------------|-------------|----------------|
--------------|-------|------------3---|-------------|----------------|
--------------|-------|------5-----5---|---0---------|------0-----0---|
--------------|-------|---0--4--4------|------0------|------2-----7---|
--------------|-------|----------------|-------------|---0-----4------|
--------------|---0---|----------------|---------3---|----------------|
 L L L L                               =
|----------------|----------------------|-------------------|--------
|---1------------|----------------------|-------------------|--------
|------3--2------|----------------------|-------------------|--------
|---0--2--1------|------------------2---|-------------------|--------
|---3--3--2--2---|------------1--2------|---3--2--0--2--0---|--------
|----------------|---0--3--0------------|-------------------|---3--0-
                                     =

--------|----------|----------------|-------------|----------------|
--------|----------|------------3---|-------------|----------------|
--------|----------|------5-----5---|---0---------|------0-----0---|
--------|----------|---0--4--4------|------0------|------2-----7---|
-2--0---|----------|----------------|-------------|---0-----4------|
--------|---3--0---|----------------|---------3---|----------------|
                                     =

|----------------|----------------------|-------------------|--------
|----------------|----------------------|-------------------|--------
|---5--3--2------|----------------------|-------------------|--------
|---0--2--1------|------------------2---|-------------------|--------
|---7--3--2--2---|------------1--2------|---3--2--0--2--0---|--------
|----------------|---0--3--0------------|-------------------|---3--0-
                                     =

--------|-------------|----------|-------------|
--------|-------------|----------|-------------|
--------|-------------|----------|-------------|
--------|-------------|---2------|---2---------|
-2--0---|---------2---|------2---|------2------|
--------|---3--0------|---0------|---0-----0---|
                L       L

The Munsters Theme: Rhythem

|---18-18-------19-18--------|---19-18-------19-18--------|---18-18---
|---17-17-19-20-23-17-19-20--|---23-17-19-20-23-17-19-20--|---17-17-19
|---------------21-----------|---21----------21-----------|-----------
|----------------------------|----------------------------|-----------
|----------------------------|----------------------------|-----------
|----------------------------|----------------------------|-----------
                                     =

----19-18--------|---19-19-------20-19--------|---19-18-------17-16-13
-20-23-17-19-20--|---18-18-21-22-24-18-21-22--|---23-17-19-20-21-15---
----21-----------|---------------22-----------|---21----------19------
-----------------|----------------------------|-----------------------
-----------------|----------------------------|-----------------------
-----------------|----------------------------|-----------------------
                                     =

-14--|---14-15-------14-15--------|---18-18-------19-18--------|---19
-----|---12-19-16-17-20-19-16-17--|---17-17-19-20-23-17-19-20--|---18
-----|---24----------16-----------|---------------21-----------|-----
-----|------21----------21--------|----------------------------|-----
-----|----------------------------|----------------------------|-----
-----|----------------------------|----------------------------|-----
                                     =

-19-------20-19--------|---19-19-------19-19-17-17--|---14-15-------0-
-18-21-22-24-18-21-22--|---------19-20--------------|---20-19-16-17---
----------22-----------|---20-20-------20-20--------|---16------------
-----------------------|----------------------------|------21---------
-----------------------|----------------------------|-----------------
-----------------------|----------------------------|-----------------

     Chord diagramD MajorD Chord diagramD MajorD Chord diagramD MajorD DimF#   Chord diagramG+G   DimF#  Chord diagramG+G    Chord diagramA augmentedA Chord diagramA augmentedA Chord diagramA augmentedA DimC#    =

-----|---5------------|---------------3---|---0--0--0--0---|--------
-3---|---7------------|------------12-0---|---2--10-10-8---|---7--8-
-----|---19-19-19-17--|---16-17-14----7---|---14-----------|--------
-----|------19-19-19--|---17----16--------|---------11-11--|--------
-----|------21-21-21--|---17----15--------|------16--------|--------
-----|----------------|-------------------|----------------|--------
                                     =

-0--2------|---12-19-------19-18--------|---19-19-------20-19-16-17--|
-------4---|---23-23-19-20-23-17-19-20--|---18-18-21-22-24-18--------|
-----------|------21-------21-----------|---------------22-----------|
-----------|----------------------------|----------------------------|
-----------|----------------------------|----------------------------|
-----------|----------------------------|----------------------------|

                             Chord diagramD MajorD Chord diagramD MajorD Chord diagramD MajorD DimF# =

|---18-18-------18-18--------|---15-14-------0------|---2------------|
|---17-17-19-20-17-17-19-20--|---19-20----17----3---|---10-----------|
|----------------------------|------16-19-----------|---19-19-19-17--|
|----------------------------|---21-----------------|------19-19-19--|
|----------------------------|----------------------|------21-21-21--|
|----------------------------|----------------------|----------------|

  Chord diagramG+G   DimF#  Chord diagramG+G    Chord diagramA augmentedA Chord diagramA augmentedA Chord diagramA augmentedA DimC#                 =

|---------------3---|---0--0--0--0---|---------0--2------|---12-19---
|------------12-0---|---2--2--2--2---|---------------4---|---23-23-19
|---16-17-14--------|---14-14-14-12--|---11-12-----------|------21---
|---17----16----12--|----------------|-------------------|-----------
|---17----15--------|----------------|-------------------|-----------
|-------------------|----------------|-------------------|-----------
                                     =

----19-18--------|---19-19-------20-19--------|---19-18-------19-18---
-20-23-17-19-20--|---18-18-21-22-24-18-21-22--|---23-17-19-20-23-17-19
----21-----------|---------------22-----------|---21----------21------
-----------------|----------------------------|-----------------------
-----------------|----------------------------|-----------------------
-----------------|----------------------------|-----------------------

                    Chord diagramE minorEm
-----|---19-18-------19-18--------|---0------|
-20--|---23-17-19-20-23-17--------|---17-----|
-----|---21----------21----16-16--|---16-16--|
-----|---------------------19-19--|---17-19--|
-----|---------------------18-18--|------18--|
-----|----------------------------|----------|

Tabbed by the Hellmark
[email protected]

Other versions of Munsters

Alternative guitar chords and tabs for Munsters by Television Music

VersionType
Munsters themeTabs

[ Privacy | About us ]

Welcome to the guitar community

Why join and log in?
- Get songbook with favourite songs
- Get custom made front page
- Submit chords and tabs
- Submit guitar-cover videos
- Get a lot of thumbs up for your work

Songbook

Last visited songs

Site
Home
Search
Community
Submit chords

Video

No video for this page. Check out how you can submit guitar-cover videos here

Search tabs and chords

Browse by artist

A B C D E F G H I J K L M N O P Q R S T U V W X Y Z #


Menu

Search

Video

Bookmark

Login