Log in

One click and you are in

Login with Facebook Login with Google

Why sign up and log in

Guitar Tabs Explorer
Misc Television tabs for Marlboro theme tune

Guitar tabs

Marlboro Theme Song

e-----------------13--------------------------
B-10-13--15-13--------10-13--15-13-11---------
G--------------15---------------------12------
D---------------------------------------------
A---------------------------------------------
E---------------------------------------------

e----------------10-----------13-13-10----10--------
B-------10-13-13----13-10--------------13-----------
G-10-12-------------------10-----------------10--12-
D---------------------------------------------------
A---------------------------------------------------
E---------------------------------------------------

e---------------------------------------------
B-------17--15--------17--15------------------
G-17--17--17----17--17--17--17----------------
D---------------------------------------------
A---------------------------------------------
E---------------------------------------------


Transcribed by Joel <jovinjus@pworld.net.ph>

Key:
/ -slide up
\ -slide down
h - hammer on
p -pull off
x -muted string
p.m. -palm mute
b -bend

Questions, comments? send them to jovinjus@pworld.net.ph
Hi to all the people of the Philippines especially all the
students of CSA!

Almost there ...

Sign in to get your own page with links to favourite songs and more. You are just one click away...

Login with Facebook Login with Google