Log in

One click and you are in

Login with Facebook Login with Google

Why sign up and log in

Guitar Tabs Explorer
Misc Television tabs for Mahoromatic

Guitar tabs

title: don't know ...
author: neither ...

A chord diagramA augmentedA WONDERFUL song you can heard in the background of several
Automatic Maiden Mahoromatic episodes (5, etc...)
played on a 6 strings acoustic guitar

Standard tunning A chord diagramE MajorE A chord diagramA augmentedA A chord diagramD MajorD A chord diagramG+G A chord diagramBB A chord diagramE MajorE

E---------------------------------1--------------------------
B---------3-1---0h1-4-3---1---------4--3h4p3-1---2h3-3h4p3-2-
G-2h3---3-------------------2-3----------------3-------------
D------------------------------------------------------------
A------------------------------------------------------------
E------------------------------------------------------------
E-----------1-------3-1---8-5-6------------------------------
B---1-3---3---4---4------------------------------------------
G-3----------------------------------------------------------
D------------------------------------------------------------
A------------------------------------------------------------
E------------------------------------------------------------
                                <-some stuff with piano->

E---------------------------------------5h6p5----------------
B---3-4---4-3-------6-4-----3-4---4-3------------------------
G-5-----------5-3---------5-----------5----------------------
D------------------------------------------------------------
A------------------------------------------------------------
E------------------------------------------------------------
                                             <-let ring->

repeat those ad libitum
enjoy ^_~

Almost there ...

Sign in to get your own page with links to favourite songs and more. You are just one click away...

Login with Facebook Login with Google