Log in

One click and you are in

Login with Facebook Login with Google

Why sign up and log in

Guitar Tabs Explorer
Misc Television tabs for Macgyver tv theme

Guitar tabs with lyrics

For all you fans out there, here's the proper tab for
the jazzy bit of the MacGyver Theme Tune.  I haven't
done the  quiet weird bit at the start.  You might
need a copy of the tune to play along with, unless you
know it really well.

e:--------------------------------------------------------------------|
b:--------------------------------------------------5-----------------|
g:-5-5-5-5-5-5-5--4-----------5--5--4-----4-------------------5-5--4--|
d:-------------------4--7--5-----------7-----7--5-------7-------------|
a:--------------------------------------------------------------------|
E:--------------------------------------------------------------------|
e:--------------------------------------------------------------------|
b:---------------------------------5----------------------------------|
g:------------5--5--4-----4---------------4--5-4---5-4---7-5-4-7-5-4--|
d:-4--7--5-------------7-----7--5-----7----------7-----7--------------|
a:--------------------------------------------------------------------|
E:--------------------------------------------------------------------|


e:--------------------------------------------------------------------|
b:-5---5-7-----8---7---6---5---8--5-----7--------5--------------------|
g:---7------4------------------------5-----7--4-----5-----7--4--------|
d:-----------------------------------------------------7--------5-----|
a:--------------------------------------------------------------------|
E:--------------------------------------------------------------------|


e:--------------------------------------------------------------------|
b:--------------------------------------------------------------------|
g:--5---4---5--4------------------------------------------------------|
d:----------------7--5---8-(!)-7--5-5-5-5-5-5-5-5-5-------------------|
a:--------------------------------------------------------------------|
E:--------------------------------------------------------------------|

Basically, play that through twice and you're there.
Those last notes can be turned into fifths instead,
played either where they are or an octave lower (3rd
fret E-string)  Try it with loads of distortion, its
great fun!

KP

;-)

Almost there ...

Sign in to get your own page with links to favourite songs and more. You are just one click away...

Login with Facebook Login with Google