Log in

One click and you are in

Login with Facebook Login with Google

Why sign up and log in

Guitar Tabs Explorer
Television Music tabs for Macgyver theme

Tabs

e:3-3-3-3-3-3-3---2----0-----3-3-2-3-2--0-----7--0------------------|
b:-------------------3---3-----------------3------------------------|
g:------------------------------------------------------------------|
d:------------------------------------------------------------------|
a:------------------------------------------------------------------|
E:------------------------------------------------------------------|

e:3-3--2----0----3-3-2-3-2--0-----0---3-2-0-3-2-0-3-2-0-3-2-0--3-2-3--5----7|
b:--------3---3----------------3----------------------------------------3---|
g:--------------------------------------------------------------------------|
d:--------------------------------------------------------------------------|
a:--------------------------------------------------------------------------|
E:--------------------------------------------------------------------------|

Almost there ...

Sign in to get your own page with links to favourite songs and more. You are just one click away...

Login with Facebook Login with Google