Log in

One click and you are in

Login with Facebook Login with Google

Why sign up and log in

Guitar Tabs Explorer
Misc Television tabs for Knightmare

Guitar tabs

Theme: Knightmare - CITV
Written By: Ed Welch
Tabbed By: Lee Thomas Robson <The_Axis@gmx.co.uk> 13/12/2002

\ = Slide Down
- = Palm-Mute (Rhythm Hand)
P = Pull-Off

The Bass in this version has been simplified from the original.
Guitar 1 plays the melody, Guitar 2 is the Bass (with palm-muting).
Where it's written A chord diagramC majorC and D, Guitar 2 plays the powerchords A chord diagramC majorC and D.
Intro:         A chord diagramG+G            Theme:
e|-----------|-This-is-the-|--------------------------------------|
b|-8--\--3---|-bass-rythm--|------------------3--0---------1------|
g|-----------|-simplified--|--------0--2------------0--------2----|
d|-----------|-------------|-0-------------------------2----------|
a|-----------|-------------|--------------------------------------|
e|-----------|-3-3-3-3-3-3-|(contine bass rythm)------------------|
                                               A chord diagramA augmentedA
e|-----C------D---|-------------------------|------------|
b|----------------|--------------------5--8-|-10--\--5---|
g|----------------|--------------5--7-------|------------|
d|-5p4-5------*---|-------5--7--------------|------------|
a|-----*------5---|-5--7--------------------|------------|
e|----------------|-------------------------|------------|
   A chord diagramA augmentedA
e|----------------------------------------|
b|------------------5--2---------2--------|
g|--------2--4------------2--------4------|
d|-2-------------------------4------------|
a|----------------------------------------|
e|----------------------------------------|
       A chord diagramFF           A chord diagramG+G           A chord diagramA augmentedA
e|------------------------------------|
b|------------------------------------|
g|-2p1-2-----------4-----------2------|
d|-----------3-----------5-----2------|
a|-----------------------------0------|
e|------------------------------------|

Almost there ...

Sign in to get your own page with links to favourite songs and more. You are just one click away...

Login with Facebook Login with Google