Log in

One click and you are in

Login with Facebook Login with Google

Why sign up and log in

Guitar Tabs Explorer
Misc Television tabs for Jeopardy

Guitar tabs

"JEOPARDY!" THEME

-Arranged for guitar/bass
-Only chord is A chord diagramC majorC [x32010]
 v   v   v   v    v   v   v   v    v   v   v   v
|-----------------|----------------|----------------|
|-----1-----------|----1-----------|----1-------1---|
|.0-------0-------|0-------0-------|0-------0-------|
|.------------2-2-|----------------|----------------|
|-----------------|----------------|----------------|
|-----------------|----------------|----------------|

|-5-------0-------|5-------0-------|5-------0-------|
|.----------------|----------------|----------------|
|.----------------|----------------|----------------|
|-----------------|----------------|----------------|

v   v   v   v    v   v   v   v    v   v   v   v
0---------------|----------------|----------------|
------3-1-0-2-1-|----1-----------|----1-----------|
----------------|0-------0-------|0-------0-------|
----------------|------------2-2-|----------------|
----------------|----------------|----------------|
----------------|----------------|----------------|

5---------------|5-------0-------|5-------0-------|
----------------|----------------|----------------|
----------------|----------------|----------------|
----------------|----------------|----------------|
 ________________  ________________
|1. ||2.
v   v   v   v    v   v   v   v     v   v   v   v
----------------|----------------||----------------|
1---------------|----------------||----------------|
------2-0-------|---------------.||----------------|
------------3---|2---0----------.||2-------0-------|
----------------|--------3-------||----------------|
----------------|----------------||----------------|

5---------------|----------------||----------------|
----------------|2---0----------.||2-------0-------|
----------------|--------3------.||----------------|
----------------|----------------||----------------|

v   v   v   v
----------------||
----------------||
----------------||
----------------||
3---------------||
----------------||

----------------||
----------------||
3-------3-------||
----3-----------||

Other versions of Jeopardy

Jeopardy theme ukuleleChords

Almost there ...

Sign in to get your own page with links to favourite songs and more. You are just one click away...

Login with Facebook Login with Google