Log in

One click and you are in

Login with Facebook Login with Google

Why sign up and log in

Guitar Tabs Explorer
Misc Television tabs for Grange hill theme

Guitar tabs

grange hill theme


written by ?
tabbed by sampcrawshaw57@aol.com

standard tuning

🏷Legend:

s = slide
~ = vabrato
h = hammer on
p = pull off

180 bpm
intro:


e-5-s-7-------2----------------|------------------------------|
B-----------------3~~~~~~~~~~~~|~~~~~~~~~~~~~~~~~~~~~~~~~~~~~~|
G-5-s-7-------2----------------|------------------------------|
D-----------------4~~~~~~~~~~~~|~~~~~~~~~~~~~~~~~~~~~~~~~~~~~~|
A------------------------------|------------------------------|
E------------------------------|------------------------------|
  1   &   2   &   3   &   4  &  1   &   2   &   3   &   4   &

main:
=====

e------------------------------|------------------------------|
B--------------------------3---|------------------------------|
G------------------------------|2-h-4-------------------------|
D----------0-------3-h-4-------|--------3-h-4---0-------------|
A------------------------------|------------------------3-----|
E------------------------------|------------------------------|
  1   &   2   &   3   &   4  &  1   &   2   &   3   &   4   &

A chord diagramC majorC     A chord diagramC#C#
e------------------------------|--------3-----------3---------|
B------------------------------|--------5-----------6---------|
G-------------------------2----|--------5-----------6---------|
D-0-------0-------3-h-4--------|--------5-----------6---------|
A------------------------------|--------3-----------4---------|
E------------------------------|--------3-----------4---------|
  1   &   2   &   3   &   4  &  1   &   2   &   3   &   4   &

e------------------------------|------------------------------|
B--------------------------3---|------------------------------|
G------------------------------|2-h-4-------------------------|
D----------0-------3-h-4-------|--------3-h-4---0-------------|
A------------------------------|------------------------3-----|
E------------------------------|------------------------------|
  1   &   2   &   3   &   4  &  1   &   2   &   3   &   4   &

A chord diagramC majorC     A chord diagramC#C#
e------------------------------|--------3-----------3---------|
B------------------------------|--------5-----------6---------|
G-------------------------2----|--------5-----------6---------|
D-0-------0-------3-h-4--------|--------5-----------6---------|
A------------------------------|--------3-----------4---------|
E------------------------------|--------3-----------4---------|
  1   &   2   &   3   &   4  &  1   &   2   &   3   &   4   &



solo:
=====

e------------------------------|------------------------------|
B------------------------------|------------------------------|
G---------2-------4---4-s-5----|------------------------------|
D-4----------------------------|------------------------------|
A------------------------------|------------------------------|
E------------------------------|------------------------------|
  1   &   2   &   3   &   4  &  1   &   2   &   3   &   4   &

e------------------------------|------------------------------|
B------------------------------|------------------------------|
G------------------------------|------------------------------|
D------------------------------|------------------------------|
A------------------------------|------------------------------|
E------------------------------|------------------------------|
  1   &   2   &   3   &   4  &  1   &   2   &   3   &   4   &


e------------------------------|------------------------------|
B------------------------------|------------------------------|
G-2---s---4--------------------|------------------------------|
D-----------------4-------0----|------------------------------|
A------------------------------|------------------------------|
E------------------------------|------------------------------|
  1   &   2   &   3   &   4  &  1   &   2   &   3   &   4   &

e------------------------------|------------------------------|
B------------------------------|------------------------------|
G------------------------------|------------------------------|
D------------------------------|------------------------------|
A------------------------------|------------------------------|
E------------------------------|------------------------------|
  1   &   2   &   3   &   4  &  1   &   2   &   3   &   4   &

e------------------------------|------------------------------|
B------------------------------|------------------------------|
G---------2-------4---4-s-5----|------------------------------|
D-4----------------------------|------------------------------|
A------------------------------|------------------------------|
E------------------------------|------------------------------|
  1   &   2   &   3   &   4  &  1   &   2   &   3   &   4   &

e------------------------------|------------------------------|
B------------------------------|------------------------------|
G------------------------------|------------------------------|
D------------------------------|------------------------------|
A------------------------------|------------------------------|
E------------------------------|------------------------------|
  1   &   2   &   3   &   4  &  1   &   2   &   3   &   4   &


e------------------------------|------------------------------|
B------------------------------|------------------------------|
G-2---s---4--------------------|------------------------------|
D-----------------4-------0----|------------------------------|
A------------------------------|------------------------------|
E------------------------------|------------------------------|
  1   &   2   &   3   &   4  &  1   &   2   &   3   &   4   &

e------------------------------|------------------------------|
B------------------------------|------------------------------|
G------------------------------|------------------------------|
D------------------------------|------------------------------|
A------------------------------|------------------------------|
E------------------------------|------------------------------|
  1   &   2   &   3   &   4  &  1   &   2   &   3   &   4   &


bridge:

  A chord diagramG+G   A chord diagramG+G
e---------3---------------3----|------------------------------|
B---------0---------------0----|------------------------------|
G-2-------0---------------0----|------------------------0-----|
D-----------------4-------0----|--------0-------3-------------|
A------------------------------|------------------------------|
E------------------------------|------------------------------|
  1   &   2   &   3   &   4  &  1   &   2   &   3   &   4   &

e---------1--------------------|------------------------------|
B------------------------------|----1-------------------------|
G-2----------------------------|2-p-0-h-2-------0---3---0-----|
D------------------------------|------------------------------|
A------------------------------|------------------------------|
E------------------------------|------------------------------|
  1   &   2   &   3   &   4  &  1   &   2   &   3   &   4   &


e-1-------1-------1-------1----|-------1-------1-------1------|
B-3-------3-------3-------3----|-------3-------3-------3------|
G-2-------2-------3-------4----|-------4-------4-------3------|
D------------------------------|------------------------------|
A------------------------------|------------------------------|
E------------------------------|------------------------------|
  1   &   2   &   3   &   4  &  1   &   2   &   3   &   4   &

e---------1--------1-------0----|-----------------------------|
B---------3--------3-------2----|-----------------------------|
G---------3--------3-------0----|-----------------------------|
D--------------------------2----|-----------------------------|
A-------------------------------|-----------------------------|
E-------------------------------|-----------------------------|
  1   &   2   &   3   &   4  &  1   &   2   &   3   &   4   &


solo (reprise):


e------------------------------|------------------------------|
B------------------------------|------------------------------|
G---------2-------4---4-s-5----|------------------------------|
D-4----------------------------|------------------------------|
A------------------------------|------------------------------|
E------------------------------|------------------------------|
  1   &   2   &   3   &   4  &  1   &   2   &   3   &   4   &

e------------------------------|------------------------------|
B------------------------------|------------------------------|
G------------------------------|------------------------------|
D------------------------------|------------------------------|
A------------------------------|------------------------------|
E------------------------------|------------------------------|
  1   &   2   &   3   &   4  &  1   &   2   &   3   &   4   &


e------------------------------|------------------------------|
B------------------------------|------------------------------|
G-2---s---4--------------------|------------------------------|
D-----------------4-------0----|------------------------------|
A------------------------------|------------------------------|
E------------------------------|------------------------------|
  1   &   2   &   3   &   4  &  1   &   2   &   3   &   4   &

e------------------------------|------------------------------|
B------------------------------|------------------------------|
G------------------------------|------------------------------|
D------------------------------|------------------------------|
A------------------------------|------------------------------|
E------------------------------|------------------------------|
  1   &   2   &   3   &   4  &  1   &   2   &   3   &   4   &

e------------------------------|------------------------------|
B------------------------------|------------------------------|
G---------2-------4---4-s-5----|------------------------------|
D-4----------------------------|------------------------------|
A------------------------------|------------------------------|
E------------------------------|------------------------------|
  1   &   2   &   3   &   4  &  1   &   2   &   3   &   4   &

e------------------------------|------------------------------|
B------------------------------|------------------------------|
G------------------------------|------------------------------|
D------------------------------|------------------------------|
A------------------------------|------------------------------|
E------------------------------|------------------------------|
  1   &   2   &   3   &   4  &  1   &   2   &   3   &   4   &


e------------------------------|------------------------------|
B------------------------------|------------------------------|
G-2---s---4--------------------|------------------------------|
D-----------------4-------0----|------------------------------|
A------------------------------|------------------------------|
E------------------------------|------------------------------|
  1   &   2   &   3   &   4  &  1   &   2   &   3   &   4   &

e------------------------------|------------------------------|
B------------------------------|------------------------------|
G------------------------------|------------------------------|
D------------------------------|------------------------------|
A------------------------------|------------------------------|
E------------------------------|------------------------------|
  1   &   2   &   3   &   4  &  1   &   2   &   3   &   4   &


bridge: (reprise)

  A chord diagramG+G   A chord diagramG+G
e---------3---------------3----|------------------------------|
B---------0---------------0----|------------------------------|
G-2-------0---------------0----|------------------------0-----|
D-----------------4-------0----|--------0-------3-------------|
A------------------------------|------------------------------|
E------------------------------|------------------------------|
  1   &   2   &   3   &   4  &  1   &   2   &   3   &   4   &

e---------1--------------------|------------------------------|
B------------------------------|----1-------------------------|
G-2----------------------------|2-p-0-h-2-------0---3---0-----|
D------------------------------|------------------------------|
A------------------------------|------------------------------|
E------------------------------|------------------------------|
  1   &   2   &   3   &   4  &  1   &   2   &   3   &   4   &


e-1-------1-------1-------1----|-------1-------1-------1------|
B-3-------3-------3-------3----|-------3-------3-------3------|
G-2-------2-------3-------4----|-------4-------4-------3------|
D------------------------------|------------------------------|
A------------------------------|------------------------------|
E------------------------------|------------------------------|
  1   &   2   &   3   &   4  &  1   &   2   &   3   &   4   &

e---------1--------1-------0----|-----------------------------|
B---------3--------3-------2----|-----------------------------|
G---------3--------3-------0----|-----------------------------|
D--------------------------2----|-----------------------------|
A-------------------------------|-----------------------------|
E-------------------------------|-----------------------------|
  1   &   2   &   3   &   4  &  1   &   2   &   3   &   4   &


Outro:


e-5-s-7-------2----------------|------------------------------|
B-----------------3------------|------------------------------|
G-5-s-7-------2----------------|------------------------------|
D-----------------4------------|------------------------------|
A------------------------------|------------------------------|
E------------------------------|------------------------------|

  1   &   2   &   3   &   4  &  1   &   2   &   3   &   4   &

Almost there ...

Sign in to get your own page with links to favourite songs and more. You are just one click away...

Login with Facebook Login with Google