Deep Space Nine by Television Music

Deep Space Nine tab by Television Music

Guitar tabs

Theme from the Paramount Television Series
   STAR TREK: DEEP SPACE NINE
   WRITTEN BY DENNIS MCCARTHY
   TAB: M.JONAS
   Part 1
   E-------------------------------------------------------------------------
   B-------------------------------------------------------------------------
   G---------------------------------------7----5---4------------------------
   D----------5---7----------------5---7----------------5------------5-5-----
   A------5--------------------5----------------------------3---5------------
   E---3-------------------3-------------------------------------------------
    
   Part 2
   E-------------------------------------------------------------------------
   B-------------------------------------------------------------------------
   G--------------7----------------------------------------------------------
   D------5---7----------------5---9----7----5-------------------------------
   A---5-------------------5-------------------------------------------------
   E-------------------------------------------------------------------------
   Part 3a
   E-------------------------------------------------------------------------
   B-------5----------6--5--6--8--------------5---------6--5-----------------
   G-----5---7------------------------------5----7-----------5--------5------
   D---5----------------------------------5--------------------5--3----------
   A-------------------------------------------------------------------------
   E-------------------------------------------------------------------------
   Part 3b
   E------------------------------------------8-7----------------------------
   B-------5----------6--5--6--8------------------8--------------------------
   G-----5---7----------------------------5---------5--7-------5--5----------
   D---5--------------------------------------------------3--5----5----------
   A--------------------------------------------------------------3----------
   E-------------------------------------------------------------------------
   Part 4a
   E-------------------------------------------------------------------------
   B-------------------------------------------------------------------------
   G-------------------------------------------------------------------------
   D----------------------10--9----------------------------------------------
   A---8--7--8---10--------------10---8-8------------------------------------
   E-------------------------------------------------------------------------
   Part 4b
   E-------------------------------------------------------------------------
   B-------------------------------------------------------------------------
   G-------------------------------------------------------------------------
   D-------------------------------------------------------------------------
   A---5--7--8---10-------8--7--------5-5------------------------------------
   E-----------------------------8-------------------------------------------
   Part 4c
   E-------------------------------------------------------------------------
   B-------------------------------------------------------------------------
   G-------------------------------------------------------------------------
   D----------------------10--9-------7-7-------9--10------------------------
   A---8--7--8---10--------------10-------------------10-8--7----------------
   E-----------------------------------------------------------8-------------
   .....then repeat part 3a,b

Find guitar tabs and chords

A B C D E F G H I J K L M N O P Q R S T U V W X Y Z #