Log in

One click and you are in

Login with Facebook Login with Google

Why sign up and log in

Guitar Tabs Explorer
Misc Television tabs for Braveheart

Guitar tabs with lyrics

From Jason.mcivor@mch.sni.de Sun May  4 09:45:20 1997


Song Name:  Braveheart OST track 2 (CD)
Artists Name : Unknown
Submitted by : Jason Mc Ivor
Transcribed by : Jason mc Ivor

Hi
It is from the second track on the BraveHeart CD which only lasts about
a minute.
But if you keep repeating it it still sounds OK

This is the quiet fingerpicking start to the guitar sequence

    A chord diagramA minorAm
e||-------------------------------------------------------------------
 ||---------------------------1---------------------------------1-----
 ||----------2-------4----------------------2--------4----------------
 ||------2------2--------2--------------2--------2-------2------------
 ||--0-----------------------------0----------------------------------
A chord diagramE MajorE||-------------------------------------------------------------------

Then the actual tune comes in
||-----------------7h8------7------7h8p7-----------------------------
||-----8---8h10----------------------------10---8---8---8h10---------
||-9------------------------------------------------------------9----
||-------------------------------------------------------------------
||-------------------------------------------------------------------
||-------------------------------------------------------------------

||------------------7h8-----7------7h8p7-----------------------------
||-----8----8h10---------------------------10---8---8/10-------------
||-9-----------------------------------------------------------------
||-------------------------------------------------------------------
||-------------------------------------------------------------------
||-------------------------------------------------------------------

||-------------------------------------------------------------------
||-----8----10----8--------------------------------------------------
||-9-------------------9----7---------7---10---9---7-----------------
||-------------------------------10--------------------10--7---------
||-------------------------------------------------------------------
||-------------------------------------------------------------------

||-----------------7h8------7------7h8p7-----------------------------
||-----8---8h10----------------------------10---8---8---8h10---------
||-9-----------------------------------------------------------------
||-------------------------------------------------------------------
||-------------------------------------------------------------------
||-------------------------------------------------------------------

This is very short and should be repeated at different speeds.  During
the album and the film this music appears often.

The Hammer-ons and pulloffs can be forgotten about for the novice player
but if you get the rest down then try putting them in.
I think it sounds more exciting.

h - hammer on
p - pull off

Almost there ...

Sign in to get your own page with links to favourite songs and more. You are just one click away...

Login with Facebook Login with Google