Log in

One click and you are in

Login with Facebook Login with Google

Why sign up and log in

Guitar Tabs Explorer
Misc Television tabs for Bbc snooker

Guitar tabs with lyrics

This is often referred to as the "SNOOKER SONG" BBC1,
Its real name is "Drag racer" by the Doug wood band
It's a classic number, which will sound ace in anyones
repertoire. Sounds tremendous and is simple to play.
This is my first effort at tab, so it may not have all
the normal signatures, but you should follow it OK.

palm the right hand to dampen the strings as required.


If it matters its in 4/4 time, "Heads down & elbows up"

Tabbed out by:     NIG Buckman      Hope you enjoy it.


E---------------------------------------I------------------------
B---------------------------------------I------------------------
G--H---------H-----------------------M--I------2-----2-----------
D-5--7-----5--7------7-----7--7--7---U--I------0--2-----2--2-----
A-0-----0--0-----0---0--0--0--0--0---T--I---5-----0-----0--0-----
E------------------------------------E--I---3--------------------


E---------------------------------------I------------------------
B---------------------------------------I---3--------------------
G--H---------H-----------------------M--I---4-------2-----2--2---
D-5--7-----5--7------7-----7--7--7---U--I---5---2---2--2--2--2---
A-0-----0--0-----0---0--0--0--0--0---T--I---5---0------0--0--0---
E------------------------------------E--I---3--------------------


E---------------------------------------I------------------------
B---------------------------------------I---3---3---2---2--------
G--H---------H-----------------------M--I---4---2---2---2--------
D-5--7-----5--7------7-----7--7--7---U--I---5---0---2---2--------
A-0-----0--0-----0---0--0--0--0--0---T--I---5-------0---0--------
E------------------------------------E--I---3--------------------

E----------------------------------------------------------------
B-----------------------------------------------------BU-BD------
G-------------------------------------------------2-2-4(5)4-2----
D-2--2-2-1-0------------------------H-----------2-4-----------4--
A-------------3-2--0------1-----H--0-2-0-0-2-3-4-----------------
E--------------------3--1---0--0-2----- 2------------------------


E--------------------II-----H--5------H--5------H--5------H--5---
B--------2--0--2--2--II----5-7-------5-7-------5-7-------5-7-----
G--5--4--2--0--2--2--II------------------------------------------
D--5--4--2--0--2--2--II------------------------------------------
A--------------------II------------------------------------------
E--------------------II------------------------------------------


E--H--5------H--5------H--5------H--5------H--5------H--5--5-----
B-5-7-------5-7-------5-7-------5-7-------5-7-------5-7----------
G----------------------------------------------------------------
D----------------------------------------------------------------
A----------------------------------------------------------------
E----------------------------------------------------------------


E-------BU--12--BD-----------------------------------------------
B-----12(13)--(13)12----10--------H-----10--12--10-12-10---------
G--------------------------------9-11----------------------------
D----------------------------------------------------------------
A----------------------------------------------------------------
E----------------------------------------------------------------


E-----BU-------BU-------BD---------------------------------------
B---12--14---12--14---12--14--10-------10--12--10-\SLIDE-DOWN----
G---------------------------------9-11---------------------------
D----------------------------------------------------------------
A----------------------------------------------------------------
E----------------------------------------------------------------


E----------------------------------------------------------------
B-----------------------------------------------------BU-BD------
G-------------------------------------------------2-2-4(5)4-2----
D-2--2-2-1-0------------------------H-----------2-4-----------4--
A-------------3-2--0------1-----H--0-2-0-0-2-3-4-----------------
E--------------------3--1---0--0-2----- 2------------------------


E--------------------II-----------------------REPEAT THIS -------
B--------2--0--2--2--II------------------------------------------
G--5--4--2--0--2--2--II---H------H--H-H-------SECTION------------
D--5--4--2--0--2--2--II--0--2--0--2--2--2------------------------
A--------------------II--0--2--0--2--2--2-----5 TIMES------------
E--------------------II--0-----0---------------------------------


E---------------------------------------I------------------------
B---------------------------------------I-----3------------------
G--H---------H-----------------------M--I-----4---7---2----------
D-5--7-----5--7------7-----7--7--7---U--I-----5---7---2----------
A-0-----0--0-----0---0--0--0--0--0---T--I-----5---5---0----------
E------------------------------------E--I-----3------------------

E---------------------------------------I------------------------
B---------------------------------------I------------------------
G--H---------H-----------------------M--I-------7---2--2--2--2---
D-5--7-----5--7------7-----7--7--7---U--I---5---7---2--2--2--2---
A-0-----0--0-----0---0--0--0--0--0---T--I---5---5---0--0--0--0---
E------------------------------------E--I---3--------------------


E----------------------------------------------------------------
B----------------------------------------------------------------
G---H------------------------H------------------------H----------
D--0-2--2-----2-----2-------0-2--2-----2-----2------0--2--2--2--2
A--0-2--2--2--2--2--2--2----0-2--2--2--2--2--2--2---0--2--2--2--2
E--0-------0-----0-----0----0-------0-----0-----0---0-----0--0--2

E----------------------------II
B------2--2------------------II
G------2--2--5--4--2---------II  REPEAT THE WHOLE THING AGAIN !
D------2--2--5--4--2---------II
A--0-------------------------II
E----------------------------II

Almost there ...

Sign in to get your own page with links to favourite songs and more. You are just one click away...

Login with Facebook Login with Google