Log in

One click and you are in

Login with Facebook Login with Google

Why sign up and log in

Guitar Tabs Explorer
Misc Television tabs for A team

Guitar tabs

Tabbed by Ben Vd Cruyz en Kristof Smits

'In 1972,...'

'...Today still wanted by the government, they survive as Soldiers =
Fortune.  If you have a problem, if no one else can help and if you can =
find them...maybe you can hire...THE A-TEAM!'
Intro-part
e-----------------------|------------------|---------------------|
B-----------------------|------------------|---------------------|
G--12--10--12-----7-----|--/10-----12--10--|--10--10--10---------|
D--------------9-----7--|-------9----------|--------------9--12--|
A-----------------------|------------------|---------------------|
E-----------------------|------------------|---------------------|

e-------------------------------|-----------------|------------|
B-------------------------------|-----------------|------------|
G--12--12--10--12---------7-----|-------------12--|--7--9------|
D------------------9--10-----7--|--9--10--12------|--------9---|
A-------------------------------|-----------------|------------|
E-------------------------------|-----------------|------------|

e-------------------|-----------------|-------------------|
B-------------------|-----------------|-------------------|
G--10--9-----10--9--|-------------12--|--10--9-----10--9--|
D---------9---------|--9--10--12------|---------9---------|
A-------------------|-----------------|-------------------|
E-------------------|-----------------|-------------------|

e-------------------|
B-------------------|
G--10--9--7---------|
D------------9--12--|
A-------------------|
E-------------------|

Pre-Riff (fade in)
e--------
B--------
G--9--7--
D--7--5--
A--7--5--
E--------

Riff 1
e------------------------------------
B------------------------------------
G--4--4--2--4--2--4--2--2--9--7------
D--4--4--2--4--2--4--2--2--9--7------
A--2--2--0--2--0--2--0--0--7--5------
E------------------------------------


Riff 2
e------------------------------
B------------------------------
G--4--4--2--4--2---------------
D--4--4--2--4--2--5--5--5--7---
A--2--2--0--2--0--5--5--5--7---
E-----------------3--3--3--5---


Riff 2
e------------------------------
B------------------------------
G--4--4--2--4--2---------------
D--4--4--2--4--2--5--5--5--4---
A--2--2--0--2--0--5--5--5--4---
E-----------------3--3--3--2---

Order:
Talking, gunfire, etc.

Intro-part
Pre-Riff

Riff 1

Riff 2

Riff 1

Riff 3

Almost there ...

Sign in to get your own page with links to favourite songs and more. You are just one click away...

Login with Facebook Login with Google