Log in

One click and you are in

Login with Facebook Login with Google

Why sign up and log in

Guitar Tabs Explorer
Misc Soundtrack tabs for Twinkle twinkle little star

Twinkle Twinkle Little Star tab by Misc Soundtrack

Misc Soundtrack tabs for Twinkle twinkle little star

Guitar tabs

If you are a learner and want to no some short tabs well here u go.


e/------------------------------
A/------------------------------
D/--0-0-----------5-5-4-4-2-2-0-
G/------2-2-4-4-2---------------
B/------------------------------
E/------------------------------
Second part

e/------------------------------
A/------------------------------
D/--7-7-5-5-4-4-2--7-7-5-5-4-4-2
G/------------------------------
B/------------------------------
E/------------------------------


Third part

e/------------------------------
A/------------------------------
D/--0-0-----------5-5-4-4-2-2-0-
G/------2-2-4-4-2---------------
B/------------------------------
E/------------------------------


BY ADAMSKI

Almost there ...

Sign in to get your own page with links to favourite songs and more. You are just one click away...

Login with Facebook Login with Google