Log in

One click and you are in

Login with Facebook Login with Google

Why sign up and log in

Guitar Tabs Explorer
Misc Soundtrack tabs for Top gun

Guitar tabs with lyrics

A chord diagramG+G
> E-|---------------------------------|----------------------------------|
> B-|---------------------------------|----------------------------------|
> G-|-----7---7---5-4-5-4-------------|-4-----4-5---4---4----------------|
> D-|-5-------------------7---7---5-7-|-----7---------5-----7---7--------|
> A-|---------------------------------|----------------------------------|
> E-|---------------------------------|----------------------------------|
>     ^       ^       ^       ^         ^       ^       ^       ^
>
> E-|---------------------------------|----------------------------------|
> B-|---------------------------------|----------------------------------|
> G-|-----7---7---5-4-5-4-------------|-4-----4-5---4---7----------------|
> D-|-5-------------------7---7---5-7-|-----7---------5------------------|
> A-|---------------------------------|----------------------------------|
> E-|---------------------------------|----------------------------------|
>     ^       ^       ^       ^         ^       ^       ^       ^
>
> then:
>     A chord diagramC#C#
> E-|---------------------------------|----------------------------------|
> B-|-----9---9---7-6-7-6-------------|-6-----6-7---6---6----------------|
> G-|-6-------------------8---8---6-8-|-----8---------6-----8---8--------|
> D-|---------------------------------|----------------------------------|
> A-|---------------------------------|----------------------------------|
> E-|---------------------------------|----------------------------------|
>     ^       ^       ^       ^         ^       ^       ^       ^
>
>
> E-|---------------------------------|----------------------------------|
> B-|-----9---9---7-6-7-6-------------|-6-----6-7---6---9----------------|
> G-|-6-------------------8---8---6-8-|-----8---------6------------------|
> D-|---------------------------------|----------------------------------|
> A-|---------------------------------|----------------------------------|
> E-|---------------------------------|----------------------------------|
>     ^       ^       ^       ^         ^       ^       ^       ^

   Ahhh.. that feels better

>
> then back to G, etc
>
> To do it in A chord diagramC majorC you could just move everything up 5 frets..
> I hope I didnt confuse you all too much
>
> seeyas again
> eric





#


Name:  Top Gun Anthem
Album:  Top Gun Soundtrack


Riff 1

E---------------------------------------------------------------------------
B---------------------------------------------------------------------------
G-------12-12----10-9-10-9-------------------9---------9-10-9-----9---------
D--10-------------------------12-12----10-12------12-----------10-----12-12
A---------------------------------------------------------------------------
E---------------------------------------------------------------------------


Riff 2

E----------9-------7-6-7-6------------------6------6-7----6-----6-------------
B-------------------------------9-9----7-9-----9---------------7------9-9-----
G-----11----------------------------------------------------------------------
D-----------------------------------------------------------------------------
A-----------------------------------------------------------------------------
E-----------------------------------------------------------------------------


The basic Progression is Riff 1
		           Riff 2
		           Riff 1
		           Riff 2……etc…..

The endings vary to accompany to music, so just vary them, they are in the
same key so it should be relatively simple.


Solo…

The solo in this song is not established, it is a free solo.  If you heard it
live 3 times, it would be different each time, however, the rhythm guitar is
as follows…

E---------------------------------------------------------------------------
B---------------------------------------------------------------------------
G---------------------------------------------------------------------------
D---------------------------------------------------------------------------
A---10-----8------7-5-3-----------------------------------------------------
E-----8-----6------5-3-1----------------------------------------------------

Those are the chords, you will just have to get the rhythm of it off the CD.
 Enjoy!

Jason L.
Send corrections and suggestions to  PaReSiTe@aol.com      Thanks

Other versions of Top Gun

Top gun anthem - introTabs
Top gun themeTabs

Almost there ...

Sign in to get your own page with links to favourite songs and more. You are just one click away...

Login with Facebook Login with Google