Log in

One click and you are in

Login with Facebook Login with Google

Why sign up and log in

Guitar Tabs Explorer
Misc Soundtrack bass tabs for The mandalorian - main theme

The Mandalorian - Main Theme bass tab by Misc Soundtrack

Misc Soundtrack bass tabs for The mandalorian - main theme

Bass tabs

Tuning: Standard (E A D G)


Intro - Recorder Solo:

G|---|------------------------------|----------|-------------------------------|------------|
D|---|-0---0-------0----0------0----|----------|-3----3------3---3------3------|------------|
A|---|------------------------------|----------|-------------------------------|------------|
E|-3-|---3------3----3------3-----3-|--------3-|---3-------3---3-----3------3--|----------3-|

                                                                              (repeat)
G|----------------------------|-------|-------------------------|--------------------|
D|----------------------------|-------|--3---3-----3---3-----3--|--------------------|
A|-1---1------1---1------1----|-------|-------------------------|--------------------|
E|---3------3---3------3---3--|-----3-|----3-----3---3-----3--3-|--------------------|


Main Theme:

                                                                          :  (play 4 times)
G|---|--------|----------|------|--------|--------------|--------|---------|-------------|
D|---|--------|----------|------|--------|--------------|--------|---------|-------------|
A|---|-3------|----------|-3----|--------|-3------------|------1-|---------|-------------|
E|-3-|--------|--------3-|------|-------3|----------1-3-|-4------|-1-----3-|-------------|

G|--------------------|----------------0--4-|-5-------------------------------------|
D|-5--3---------------|----------3--0-------|---------------------------------------|
A|--------5--3--------|-------4-------------|---------------------------------------|
E|---------------6--3-|-----4---------------|---------------------------------------|

Almost there ...

Sign in to get your own page with links to favourite songs and more. You are just one click away...

Login with Facebook Login with Google