Log in

One click and you are in

Login with Facebook Login with Google

Why sign up and log in

Guitar Tabs Explorer
Misc Soundtrack guitar tabs for The mandalorian - end credits theme

The Mandalorian - End Credits Theme tab by Misc Soundtrack

Misc Soundtrack guitar tabs for The mandalorian - end credits theme

Guitar tabs

Tuning: Standard (E A D G B E)
The Mandalorian Theme
Standard Tuning
84bpm

Intro:
Acoustic Guitar
e|------------------------------------|------------------------------------|
B|------------------------------------|------------------------------------|
G|------------------------------------|------------------------------------|
D|------------------------------------|------------------------------------|
A|--1---3----3---3----3---3----3---3--|--3---3----3---3----3---3----3---3--|
E|------------------------------------|------------------------------------|

e|------------------------------------|------------------------------------|
B|------------------------------------|------------------------------------|
G|------------------------------------|------------------------------------|
D|------------------------------------|------------------------------------|
A|--1---3----3---3----3---3----3---3--|--3---3----3---3----3---3----3---3--|
E|------------------------------------|------------------------------------|


Verse:
e|------------------------------------|---------------3----1---------------|
B|-----------1---4--------3-----------|------------------------------------|
G|------------------------------------|-----------5------------------------|
D|------------------------------------|------------------------------------|
A|--1---3----3---3----3---3----3---3--|------------------------------------|
E|------------------------------------|--3---4----4---4----4---1----1---1--|


Acoustic Guitar
e|------------------------------------|---------------3----1---------------|
B|-----------1---4--------3-----------|------------------------------------|
G|------------------------------------|-----------5------------------------|
D|------------------------------------|------------------------------------|
A|--1---3----3---3----3---3----3---3--|------------------------------------|
E|------------------------------------|--3---4----4---4----4---1----1---1--|

e|------------------------------------|-----------------------------------|
B|------------------------------------|-----------------------------------|
G|---------------------------5--3-----|-----------------------------------|
D|-----------5-5-5----5-5-5-----------|--3-5-6----6---6----6---3----3---3-|
A|--1---3----3---3----3---3-----3---3-|-----------------------------------|
E|------------------------------------|--3---4----4---4----4---1----1---1-|

e|------------------------------------|-----------------------------------|
B|------------------------------3-----|------3--------------------4-3-1---|
G|---------------------------5--------|--3-5----------------------------3-|
D|-----------5-5-5----5-5-5-----------|-----------------------------------|
A|--1---3----3---3----3---3-----3---3-|-----------------------------------|
E|------------------------------------|--3---4----4---4----4---1----1---1-|


Horn Section                       String Section
e|---------------3------1-------------|-------------------------3---6---8-|
B|---------------------------1----4---|----------------------4------------|
G|------------------------------------|--3---0---------3--5---------------|
D|------------------------------------|-------------5---------------------|
A|--1---3----3---3----3---3-----3---3-|-----------------------------------|
E|------------------------------------|--3---4----------------------------|

Almost there ...

Sign in to get your own page with links to favourite songs and more. You are just one click away...

Login with Facebook Login with Google