Search tabs and chords

Search for song, artist or band

Log in

One click and you are in

Login with Facebook Login with Google

Why sign up and log in

Guitar Tabs Explorer
Misc Soundtrack guitar tabs for The greatest showman - rewrite the stars acoustic

The Greatest Showman - Rewrite The Stars Acoustic tab by Misc Soundtrack

Misc Soundtrack guitar tabs for The greatest showman - rewrite the stars acoustic

Guitar tabs

  • Capo on 3rd
Tuning: Standard (E chord diagramEE A chord diagramAA D chord diagramDD G chord diagramGG B chord diagramBB E chord diagramEE)

Difficulty: Intermediate

Verse:

e|-----------------------------------------------------------------------------------------------------------|
A|-----------------------------------------------------------------------------------------------------------|
G|0-0-0-2-2h4--0-0-0-2-4-2-0-----0-0-0-2-2h4--0-0-0-2-4-2-0-------2-2-2-2-0---0---0-0-2-4-2-0---0----0---0---|
D|---------------------------------------0----------------------------------4----2---------------------------|
G|---------------------------5-5~--------0------------------5-5---------x-------------x--------5--x-5---5--x-|
C| chord diagramC|C|------------------------------------------------------0--------2------x-------4-----x-------0---x----0---x-|

e|-----------------------------------------------------------------|
A|----------1-0----------------------------------------------------|
G|0h2-----0-----2-0----0-0-0h2-4-2-0---0----0---0---2-0-2/4-0-2-0--|
D|----4--4------------2---------------2----2---2-------------------|
G|----------x--------------x-------------x--------x----------------|
C| chord diagramC|C|------2---x-------4------x---------0---x----0---x-------0--------|


Chorus:

e|3---2----------------------------------------------3---2---------------------------------------------------|
A|0---0-----3-1-----1----3-3/5----3------------0-----0---0-----3-1-----1-----3-------3-----------------------|
G|0-0-------0-0---0-0-2-0-------0----0-0h2---0-0-2-0-0-0-------0-0---0-0-2-0-----0-0-----0---0h2----0-0-2-4-4|
D|---------------2--2----------0----0-------0--0-----0--------------2--2---------------------------0--0------|
G|------x-----------x------0-------x-----------x-----------x-----------x-------0-------x---x----------x------|
C|4 chord diagramC|4C|4-----x-4----0----x--------------x------2----x-----4-----x-4-----0---x---------------x---x-----2----x------|

e|--------------------------------------------------0-----3---2---------------------------------------|
A|---------------------------3-3/5-3-3---1-0--------0-----0---0-----3-1------1-----3---1--0-----------|
G|---0---0-2-4-4---0---0-2-0---------0-------2----0-0-2-0-0-0-------0-0----0-0-2-0----0-------2--0-0--|
D|--2----0--------2----0-------------------------0--0---------------------2--2-------0----------------|
G|-------x-------------x-------0-------x------------x-----------x------------x------0----x--x---------|
C| chord diagramC|C|-4---4-x-------0---0-x---------------x-------2----x-----4-----x-4-----0----x-----------x--x---2-----|

Verse:

e|----3-2-------3-------3-2----------------------------------------------------------------------------------|
A|----3-3-1----1-1-0---0--------------0----1-1-1-1-1-1-----0-------------------------------------------------|
G|--0---------2-------0-----2---0-0-0-2-4----------0-----2---0-0-0-2-4-2-0---0-2---h3p2p0-2---0-0-2-4--4/5\4-|
D|-0----------------------------------0---0--------0------------------------0----------------0---------------|
G|0---------2------------------0------x----0-------x---0---0-------x-------0-----x----------0-----x---0------|
C| chord diagramC|C|-------------------4--------2-------x------------x---------------x-------------x----------------x----------|

e|---------------------------------------------------------------------------------------------0-------|
A|--------------------------------------------------------------------------0h1---1p0----------3-3p0-3-|
G|2-0------0-0-0-2-4-2-0-------------2-2-2-2-0--0----0-0-2-4-2-0---0----0--0----------2------2---------|
D|-----------------------0-0h2-----------------4----2------------------------------------0-0-----------|
G|----x-0-0------x-------------x-----------x-------------x--------5--x-5--------x--------------x-------|
C| chord diagramC|C|----x----------x------0------x-0-2-------x-------4-----x-------0---x----0-----x-------2------x-------|

e|---0-3-2-0h2p0------------------------------------------------|
A|--3------------3----------------------------------------------|
G|-0--------------2---0-0-----5\4-4p2-2-------------------0-2-0-|
D|--------------------------2-----------------------------------|
G|-----x------------x-----------x-------0-0-0-0-0-0-0-0-0-------|
C|4 chord diagramC|4C|4----x-----0------x-----0-----x-------0-0-0-0-0-0-0-0-0-------|


Chorus:

e|3---2----------------------------------------------3---2----3-3h5p3----------3-------3------0h2p0----------|
A|0---0-----3-1-----1----3-3/5----3------------0-----0---0-------------3-3-3-3-----3-3----3---------3--------|
G|0-0-------0-0---0-0-2-0-------0----0-0h2---0-0-2-0-0-0----0---------0--------------------------------0-0-2-|
D|---------------2--2----------0----0-------0--0-----0-------------------------------------------------------|
G|------x-----------x------0-------x-----------x----------x--------------x-------0------x---x------------x---|
C|4 chord diagramC|4C|4-----x-4----0----x--------------x------2----x-----4----x---------0----x--------------x---x-------2-2--x---|

e|-------------------------------------------------------0-----3---2---------------------------------------|
A|--------------------------------3-3/5-3-3---1-0--------0-----0---0-----3-1------1-----3---1--0-----------|
G|2h4-4---0---0-2-4-4---0---0-2-0---------0-------2----0-0-2-0-0-0-------0-0----0-0-2-0----0-------2--0-0--|
D|-------2----0--------2----0-------------------------0--0---------------------2--2-------0----------------|
G|------------x-------------x-------0-------x------------x-----------x------------x------0----x--x---------|
C| chord diagramC|C|------4---4-x-------0---0-x---------------x-------2----x-----4-----x-4-----0----x-----------x--x---2-----|


Bridge:

e|-----------------------------------------------------------0-----------------|
A|----0---------3h5---------3---0----0---------3-3---------3---0---------------|
G|----0-0-0-2-0-------------0---0----0-0-0-2-0-------2-----2---------0-0-0-2-0-|
D|--2------------------------------0-0---------------0---------------0---------|
G|----x---------------x-------x---0--x---0---x-------x-------x-----2-x-------x-|
C| chord diagramC|C|-4--x---4-------0-0-x-0-0---x------x-------x---2-2-x-2-2---x---4---x---4---x-|

  bar 2nd fret             bar 5th fret
e|2---------------0----------5---5-7-7----5---5-7-7----5---5-7-7--------|
A|------3-----3-3----------8-8-8-8------8-8-8-8------8-8-8-8------------|
G|------2-----2-2-----0----5-5-5-5------5-5-5-5------5-5-5-5-----0-2-0--|
D|----4-4---4---4-----0---0------5------------5------------5------------|
G|--4---x-4-----x-----0------x---0---x----x---0---x----x---0------------|
C| chord diagramC|C|------x-------x---0-x-0----x---0---x-0--x---0---x-0--x---0------------|


Chorus:

e|3---2----------------------------------------------3---2---------------------------------------------------|
A|0---0-----3-1-----1----3-3/5----3------------0-----0---0-----3-1-----1-----3-------3-----------------------|
G|0-0-------0-0---0-0-2-0-------0----0-0h2---0-0-2-0-0-0-------0-0---0-0-2-0-----0-0-----0---0h2----0-0-2-4-4|
D|---------------2--2----------0----0-------0--0-----0--------------2--2---------------------------0--0------|
G|------x-----------x------0-------x-----------x-----------x-----------x-------0-------x---x----------x------|
C|4 chord diagramC|4C|4-----x-4----0----x--------------x------2----x-----4-----x-4-----0---x---------------x---x-----2----x------|

e|------------------------------------------------0-----3---2--------------------------------------|
A|---------------------------3/5-3-3---1-0--------0-----0---0-----3-1------1-0---------------------|
G|---0---0-2-4-4---0---0-2-0-------0-------2----0-0-2-0-0-0-------0-0----0-0--2-2/4---2---0h2------|
D|--2----0--------2----0-----------------------0--0---------------------2--2--------0---------4----|
G|-------x-------------x-----0-------x------------x-----------x------------x------0-----x----------|
C| chord diagramC|C|-4---4-x-------0---0-x-------------x-------2----x-----4-----x-4-----0----x------------x-------2--|


Outro:

e|-------------------------------------------------------------------|
A|-0-0-0-0-0-0-0-0-1-1-1-1-1-1-----0-0-0-0-0-0-0-0-1-1-1-1-1-1-----0-|
G|-0-0-0-0-0-0-0-0-0-0-0-0-0-0-2-2-0-0-0-0-0-0-0-0-0-0-0-0-0-0-2-2-0-|
D|-------------------------------------------------------------------|
G|-0-----0-----0---0-----0-----0---0-----0-----0---0-----0-----0---0-|
C| chord diagramC|C|-------------------------------------------------------------------|

e|-----------------------------------------------------------------|
A|-----------------------------------------------------------------|
G|0-0-0-2-2h4--0-0-0-2-4-2-0-----0-0-0-2-2/4--0-0-0-2-4-2-0--------|
D|----------------------------------------------------------0-0h2--|
G|---------------------------5-5~----------------------------------|
C| chord diagramC|C|-----------------------------------------------------------------|

Other versions of The Greatest Showman - Rewrite The Stars Acoustic

The greatest showman - rewrite the starsChords
The greatest showman - rewrite the stars (Ver. 2)Chords
The greatest showman - rewrite the stars ukuleleChords
The greatest showman - rewrite the starsTabs
The greatest showman - rewrite the stars (Ver. 2)Tabs
The greatest showman - rewrite the stars - introTabs

Almost there ...

Sign in to get your own page with links to favourite songs and more. You are just one click away...

Login with Facebook Login with Google