Log in

One click and you are in

Login with Facebook Login with Google

Why sign up and log in

Guitar Tabs Explorer
Misc Soundtrack tabs for The crow

Guitar tabs with lyrics

rage against the machine

"Darkness"
	from "The Crow" Soundtrack

Bass Tab

Tabbed by Christopher Preston (PRIMUS8@AOL.COM)
	The Alternate 2 is to be used after the "Rest of the Verse".  Comments and
rage tab welcome.

Intro + 1st verse
|-----------------------|
|-----------7-----------|
|-7--9--10-----X-10--9--|
|-----------------------|
Rest of the Verse

|---------|
|---------|
|-5-7-8-7-|
|---------|

Alternate 2 (1)
|97-----|
|----95-|
|-------|
|-------|

Alternate 2 (2)
|-------|
|-10----|
|-8-----|
|-------|


Verse Alternate
|--------------------------|
|-----------7----------54--|
|-7--9--10-----X-10--9---75|
|--------------------------|



The following message contains the more interesting tabs taken from the
Orchestral Version of The Crow. That is to say:
- Captive Child (guitar solo when Eric Draven is playing quietly on the roofs)
- Inferno (guitar solo when Eric breaks ferociously
is guitar at the end of the track).
- Tracking the Prey (song  of Eric Draven's band)

		Captive Child
				composed by Graeme Revell
			(taken from the Original soundtrack of
				THE CROW )
			tabbed by Olivier GOYET (L'Etat Morbide)

e----5/7---5----------5----------------5---------5------------------------------
B--------------8-7--------5------7-------5-----------3---5----------------------
G-------------------------------------------------------------------------------
D-------------------------------------------------------------------------------
A-------------------------------------------------------------------------------
E-------------------------------------------------------------------------------

e----5/7---5----------5----------------3---------5------------------------------
B--------------8-7--------5------7-------3---------------5----------------------
G----------------------------------------------------5--------------------------
D-------------------------------------------------------------------------------
A-------------------------------------------------------------------------------
E-------------------------------------------------------------------------------


		Inferno -	composed by Graeme Revell
			(taken from the Original soundtrack of
				THE CROW )
			tabbed by Olivier GOYET (L'Etat Morbide)


       A chord diagramE minorEm                        A chord diagramD MajorD             A chord diagramC majorC
e----5/7---5----------5----------------3-------3/5------------------------------
B--------------8-7--------5------7-------3-----------5/1---3/5------------------
G-------------------------------------------------------------------------------
D-------------------------------------------------------------------------------
A-------------------------------------------------------------------------------
E-------------------------------------------------------------------------------

      A chord diagramE minorEm              A chord diagramD MajorD               A chord diagramC majorC             A chord diagramD MajorD
e---0-0-3-0---0-5-0---0-7-0---0-8-0---0-7-0---0-5-0---0-3-----------------------
B---------------------------------------------------------0---------------------
G-------------------------------------------------------------------------------
D-------------------------------------------------------------------------------
A-------------------------------------------------------------------------------
E-------------------------------------------------------------------------------

    A chord diagramC majorC     A chord diagramD MajorD       A chord diagramE MajorE
e---------------------------------------------------
B---------------------------------------------------
G---5-----5\7-----7\9-------------------------------   repeat once again
D---5-----5\7-----7\9-------------------------------   this power chords
A---3---3-3\5---5-5\7-------------------------------
E---------------------0.0.0.0.0.0.0.0.0.0.0.0.0.0.0-


then carry on with the following

e---------------------------------------------------------------5.7.5.7.5.7.5.7
B-------------------------------------------3.5.3.5.3.5.3.5.3.5----------------
G----------------------2.4.2.4.2.4.2.4.2.4-------------------------------------
D-2.5.2.5.2.5.2.5.2.5----------------------------------------------------------
A------------------------------------------------------------------------------
E------------------------------------------------------------------------------

e-10.12.10.12.10.12.10.12.10.12--12.15.12.15.12.15.12.15.12.15-----------------
B----------------------------------------------------------------0g10----------
G------------------------------------------------------------------------------
D------------------------------------------------------------------------------
A------------------------------------------------------------------------------
E------------------------------------------------------------------------------

end the track by making weird noise loud and smashing ...
	(that I can't explain better than that)

		Tracking the Prey
		(imagine a joy division song and you'll be in the mood)

A chord diagramC minorCm
It can't rain all the time
A chord diagramFF
The Sky won't fall forever
A chord diagramBb majorBb
And though the night seems long
A chord diagramG+G
Your tears won't fall forever

  A chord diagramFF                               A chord diagramC minorCm                              A chord diagramG+G
e-----3---1-------------1------------------------------------------------------
B-1-----------4---3-------1-----3-4--------------------------------------------
G-----------------------------------------5-3-5---------------5---3------------
D---------------------------------------------------------------0-5------5-3-5-
A------------------------------------------------------------------------------
E------------------------------------------------------------------------------
  .       .       .       .       .       .       .       .       .      .

starts song again ...

----------------------------------end------------------------------------------
I warned you ... it is not so complicate as it seems


good luck ... and good trip

Other versions of The Crow

The crow - eric dravens roof topTabs
The crow - infernoTabs
The crow - rooftopTabs
The crow - stairway to heaven themeTabs
The crow themeTabs

Almost there ...

Sign in to get your own page with links to favourite songs and more. You are just one click away...

Login with Facebook Login with Google