Log in

One click and you are in

Login with Facebook Login with Google

Why sign up and log in

Guitar Tabs Explorer
Misc Soundtrack guitar tabs for The avengers - theme song

The Avengers - Theme Song tab by Misc Soundtrack

Misc Soundtrack guitar tabs for The avengers - theme song

Guitar tabs

Tuning: Standard (E A D G B E)

Difficulty: Novice


Verse:

e|---------------------------|
B|-3-1---1-3-3--3-1----------|
G|----3-3-----0-----3-3-2-0--| x4
D|---------------------------|
A|---------------------------|
E|---------------------------|



Chorus:

e|3-0----------3-4-3---8-5-1-----0---0-0-7-5-3-2-0-0-0-7-5-3-2-0-0-0-7-9--5-7-0-0-0-7-5-3-2-0-0-2-0-0-2-0|
B|----1-3------------1-------1-3---4-------------------------------------------------------3-----3-------|
G|--------3-0--------------------------------------------------------------------------------------------|
D|-------------------------------------------------------------------------------------------------------|
A|-------------------------------------------------------------------------------------------------------|
E|-------------------------------------------------------------------------------------------------------|

↓ Add and view comments below ↓

What do you think about this song and these tabs?

Add your comments, questions, rant or a thumbs up below.

Almost there ...

Sign in to get your own page with links to favourite songs and more. You are just one click away...

Login with Facebook Login with Google