Guitar Tabs Explorer
Misc Soundtrack guitar tabs for Sunflower

Sunflower tab


5 / 5 [1 vote]


KsatyamAuthor: Ksatyam

Sunflower tab by Misc Soundtrack

This song is by the two rappers Post Malone and Swae Lees and it is featured in the movie "Spiderman: into the Multiverse". The film was released on October 18th 2018 and got 20 million views in the first week.

Guitar tabs

Print
  • Tuning: Standard tuning
  • Difficulty: Novice
[Intro]
E|---------------------------------------------------------------|
A|---------------------------------------------------------------|
D|---------------------------------------------------------------|
G|----2----------------------------------------------------------|
B|----------0---3----3-------------------------------------------|
e|---------------------------------------------------------------|


E|-------------------------------------------------------------|
A|-------------------------------------------------------------|
D|-------------------------------------------------------------|
G|-------------------------------------------------------------|
B|----3--------------------------------------------------------|
e|---------5----7----2----0------------------------------------|


E|---------------------------------------------------------------|
A|---------------------------------------------------------------|
D|---------------------------------------------------------------|
G|---------------------------------------------------------------|
B|--------3----3-------------------------------------------------|
e|---------------------------------------------------------------|


E|----------------------------------------------------------|
A|----------------------------------------------------------|
D|----------------------------------------------------------|
G|----------------------------------------------------------|
B|-----3------------------------3---------------------------|
e|-----------5----7----2----0-------------------------------|




[Verse1]
E|---------------------------------------------------------|
A|---------------------------------------------------------|
D|---------------------------------------------------------|
G|---------------------------------------------------------|
B|--3--3--3---------3---0---0---3--------------------------|
e|--------------2------------------------------------------|) X5




E|--------------------------------------------------------------|
A|--------------------------------------------------------------|
D|--------------------------------------------------------------|
G|--------------------------------------------------------------|
B|----3--3--3--3------------3--3--3--3--------------------------|
e|-------------------3---2------------------0-------------------|) X5


E|-----------------------------------------------------------|
A|-----------------------------------------------------------|
D|-----------------------------------------------------------|
G|-------------------------------------------------2---------|
B|----3--3--3--3-------------3--3--3--3-----0----------------|
e|-------------------3---2-----------------------------------|


E|------------------------------------------------------------|
A|------------------------------------------------------------|
D|------------------------------------------------------------|
G|------------------------------------------------------------|
B|----3--3--3--3-------------3--3--3--3-----------------------|
e|-------------------3---2------------------0-----------------|




[Bridge]
E|------------------------------|------------------------------------|
A|-------------------------------|------------------------------------|
D|-------------------------------|------------------------------------|
G|-------------------------------|------------------------------------|
B|-----------------------3-------|--3----------------------------3----|
e|---7--5--7---2--0--------------|-----7--7--7--5--7---2--0-----------|) X2
oh-ooh, some things you just can`t refuse
She wanna ride me like a cruise and I`m not tryna lose




[Chorus]
E|---------------------------------------------------------------|
A|---------------------------------------------------------------|
D|---------------------------------------------------------------|
G|-------------------------------2-------------------------------|
B|---0---3---------------------------0--3------------------------|
e|-----------0--0--0--0-----------------------0-----2----0-------|


E|---------------------------------------------------------------|
A|---------------------------------------------------------------|
D|---------------------------------------------------------------|
G|-------------------------------2-------------------------------|
B|---0---3---------------------------0--3----------------3-------|
e|-----------0--0--0--------------------------0-0-0--------------|




E|---------------------------------------------------------------|
A|---------------------------------------------------------------|
D|---------------------------------------------------------------|
G|-------------------------------2-------------------------------|
B|---0---3---------------------------0--3------------------------|
e|-----------0--0--0--0-----------------------0-----2----0-------|


E|---------------------------------------------------------------|
A|---------------------------------------------------------------|
D|---------------------------------------------------------------|
G|-------------------------------2-------------------------------|
B|---0---3-----------3-----------------3---------------3---------|
e|-----------0---0----------------------------0----2-------------|
You`re the sunflower, you`re the sunflower






[Verse2]
E|---------------------------------------------------------------|
A|---------------------------------------------------------------|
D|---------------------------------------------------------------|
G|----------------------------------2---0------------------------|
B|----------------3---0---3---0--------------------------------|
e|---0---0-------------------------------------------------------|) X4




E|--------------------------- |---------------------------------------|
A|-----------------------------|---------------------------------------|
D|-----------------------------|---------------------------------------|
G|--2--2--2--2--2--2-----------|--2--2--2--2--2--2--2------------------|
B|--------------------0--------|-----------------------0--3--3---------|
e|-----------------------------|---------------------------------------|
Every time I`m walkin` out, I can hear you tellin` me to turn around


E|--------------------------------------------------------------|
A|--------------------------------------------------------------|
D|--------------------------------------------------------------|
G|----------------------------------------2---------------------|
B|-------------------------------3---0--------------------------|
e|--0--0--0--0--0--0--0--2---0----------------------------------|
Fightin` for my trust and you won`t back down


E|---------------------------------------------------------------|
A|---------------------------------------------------------------|
D|---------------------------------------------------------------|
G|---------------------------------------------------------------|
B|-------------------------------3---0----3----------------------|
e|--0--0--0--0--0--0--0--2---0-----------------------------------|
Even if we gotta risk it all right now, oh




[Chorus2]
E|---------------------------------------------------------|
A|---------------------------------------------------------|
D|---------------------------------------------------------|
G|---------------------------------------------------------|
B|-------------------------------------------3-------------|
e|----2--2--2--2--2---------3---2--0-----------------------|) X4




[Chorus1]
E|-----------------------------------------------------------|
A|-----------------------------------------------------------|
D|-----------------------------------------------------------|
G|-------------------------------2---------------------------|
B|---0---3---------------------------0--3--------------------|
e|-----------0--0--0--0-----------------------0-----2----0---|


E|---------------------------------------------------------------|
A|---------------------------------------------------------------|
D|---------------------------------------------------------------|
G|-------------------------------2-------------------------------|
B|---0---3---------------------------0--3----------------3-------|
e|-----------0--0--0--------------------------0-0-0--------------|




E|---------------------------------------------------------------|
A|---------------------------------------------------------------|
D|---------------------------------------------------------------|
G|-------------------------------2-------------------------------|
B|---0---3---------------------------0--3------------------------|
e|-----------0--0--0--0-----------------------0-----2----0-------|


E|---------------------------------------------------------------|
A|---------------------------------------------------------------|
D|---------------------------------------------------------------|
G|-------------------------------2-------------------------------|
B|---0---3-----------3-----------------3---------------3---------|
e|-----------0---0----------------------------0----2-------------|
You`re the sunflower, you`re the sunflower-

Comment this song and these guitar tabs

Do you have corrections, comments on the guitar tabs, thoughts about the song or a message to the author? Write them below.