Log in

One click and you are in

Login with Facebook Login with Google

Why sign up and log in

Guitar Tabs Explorer
Misc Soundtrack guitar tabs for Star wars the rise of skywalker - trailer theme

Star Wars The Rise Of Skywalker - Trailer Theme tab by Misc Soundtrack

Misc Soundtrack guitar tabs for Star wars the rise of skywalker - trailer theme

Guitar tabs

Tuning: Standard (E A D G B E)

Star Wars: Rise of Skywalker Trailer music


e|-10--6--5---------------|-10--6--5----------------|
B|-----------7-----------|------------7-------------|
G|-----------------------|--------------------------|
D|-----------------------|--------------------------|
A|-----------------------|--------------------------|
E|-----------------------|--------------------------|

e|-10--6--5---------------|-10--6--5----------------|
B|-----------8-----------|------------8-------------|
G|-----------------------|--------------------------|
D|-----------------------|--------------------------|
A|-----------------------|--------------------------|
E|-----------------------|--------------------------|

e|-10--6--5---------------|-10--6--5----------------|
B|-----------7-----------|------------7-------------|
G|-----------------------|--------------------------|
D|-----------------------|--------------------------|
A|-----------------------|--------------------------|
E|-----------------------|--------------------------|

e|-10--6--5---------------|-10--6--5-----10--6--5---|
B|-----------8-----------|------------8------------8|
G|-----------------------|--------------------------|
D|-----------------------|--------------------------|
A|-----------------------|--------------------------|
E|-----------------------|--------------------------|

e|-10--6--5---------------|-10--6--5----------------|
B|-----------7-----------|------------7-------------|
G|-----------------------|--------------------------|
D|-----------------------|--------------------------|
A|-----------------------|--------------------------|
E|-----------------------|--------------------------|

e|-10--6--5---------------|-10--6--5-----10--6--5---|
B|-----------8-----------|------------8------------8|
G|-----------------------|--------------------------|
D|-----------------------|--------------------------|
A|-----------------------|--------------------------|
E|-----------------------|--------------------------|

e|-10--6--5---------------|-10--6--5----------------|
B|-----------7-----------|------------7-------------|
G|-----------------------|--------------------------|
D|-----------------------|--------------------------|
A|-----------------------|--------------------------|
E|-----------------------|--------------------------|

e|-10--6--5--------------|-10--6--5-----10--6--5----|
B|-----------8-----------|------------8------------8|
G|-----------------------|--------------------------|
D|-----------------------|--------------------------|
A|-----------------------|--------------------------|
E|-----------------------|--------------------------|

e|-5-----------5---------|--6-----------5-----------|
B|---7-------7---7-------|7---7-------7---7-------7-|
G|-----7---7-------7---7-|------7---7-------7---7---|
D|-------7-----------7---|--------7-----------7-----|
A|-----------------------|--------------------------|
E|-----------------------|--------------------------|

e|-10------------6-------|---8-----------6----------|
B|----10-------8---8-----|-8---8-------8---8--------|
G|-------7---7-------7---|7-------7---7-------7---8-|
D|---------8-----------8-|----------8-----------8---|
A|-----------------------|--------------------------|
E|-----------------------|--------------------------|

e|-10----------5---------|-6-----------5-----------7|
B|---7-------7---7-------|7--7-------7---7-------7--|
G|-----7---7-------7---7-|-----7---7-------7---7----|
D|-------7-----------7---|-------7-----------7------|
A|-----------------------|--------------------------|
E|-----------------------|--------------------------|

e|----6-------6-10-6-----|--6--10--6----------------|
B|-8----8---8---------8--|--8----------8------------|
G|--------7--------------|7--------------7----------|
D|-----------------------|--------------------------|
A|-----------------------|--------------------------|
E|-----------------------|--------------------------|

e|---6--12--6--------6---|-10--14----------14--17--14----|
B|-8-----------8---8-----|--------15----15---------------|
G|---------------7-------|-----------14------------------|
D|-----------------------|-------------------------------|
A|-----------------------|-------------------------------|
E|-----------------------|-------------------------------|

e|----------14--18--14------|---------14--17--14----------14|
B|-15----15--------------15-|------15------------15----15---|
G|----14--------------------|---14------------------14------|
D|--------------------------|-------------------------------|
A|--------------------------|-------------------------------|
E|--------------------------|-------------------------------|

e|-15--8-------6--10--6--|-------6--8--6------------|
B|-------8---8-----------|-8---8---------8----------|
G|---------7-------------|---7-------------7--------|
D|-----------------------|--------------------------|
A|-----------------------|--------------------------|
E|-----------------------|--------------------------|

e|---6-------6-----------|-5------------5-----------|
B|-8---8---8-------------|--------------------------|
G|-------7---------------|--------------------------|
D|-----------------------|--------------------------|
A|-----------------------|--------------------------|
E|-----------------------|--------------------------|

e|---7--4--------7-------|-12--11--12--7--5--4--2--12|
B|-3----5--------5-------|--------------------------|
G|-----------------------|--------------------------|
D|-----------------------|--------------------------|
A|-----------------------|--------------------------|
E|-----------------------|--------------------------|

e|-7--5--4--2--12--------|-7--5--4--5--2-----2--7--11-|
B|-----------------------|----------------0-----------|
G|-----------------------|----------------------------|
D|-----------------------|----------------------------|
A|-----------------------|----------------------------|
E|-----------------------|----------------------------|

e|-7--14--11--19--14-----|-23--19--7----------------|
B|-----------------------|--------------------------|
G|-----------------------|--------------------------|
D|-----------------------|--------------------------|
A|-----------------------|--------------------------|
E|-----------------------|--------------------------|

e|-7--5--4--5--12--------|-7--5--4--5--12-----------|
B|-----------------------|--------------------------|
G|-----------------------|--------------------------|
D|-----------------------|--------------------------|
A|-----------------------|--------------------------|
E|-----------------------|--------------------------|

e|-7--5--4--5--2---------|-2--2-------7-------------|
B|-----------------------|--------------------------|
G|-----------------------|--------------------------|
D|-----------------------|--------------------------|
A|-----------------------|--------------------------|
E|-----------------------|--------------------------|

e|-7--7--7--11--11-------|-0--7----------5--4--2----12|
B|-----------------------|--------------------------12|
G|-----------------------|--------------------------19|
D|-----------------------|----------------------------|
A|-----------------------|----------------------------|
E|-----------------------|----------------------------|


Please let me know if there are any mistakes in this tab

Almost there ...

Sign in to get your own page with links to favourite songs and more. You are just one click away...

Login with Facebook Login with Google