Log in

One click and you are in

Login with Facebook Login with Google

Why sign up and log in

Guitar Tabs Explorer
Misc Soundtrack tabs for Star wars   the luke skywalker song

Star Wars The Luke Skywalker Song tab by Misc Soundtrack

Misc Soundtrack tabs for Star wars   the luke skywalker song

Guitar tabs with lyrics

Name: A chord diagramA augmentedA New Hope/Tales Of A chord diagramA augmentedA Jedy (aka The Force Theme or Luke Skywalker's Theme)
Composed by: John Williams
Converted to tab by: Mikeer


|--------------------------------------------------------------- 3-1-----(1)
|------1-----(1)-3----4h6-4--(4)--(4)------------1----3-4---4---------------
|---0---------------------------------0----0-(0)--------------5-------------
|---------------------------------------------------------------------------
|---------------------------------------------------------------------------
|---------------------------------------------------------------------------

|---------------------3----8---------------------3--(3)---------------------
|-1-----1--(1)-3-4-------4-4-------------4-3---1--------4-------------1--(1)
|----0--------------0-------------5--(5)--------------------5-0---0-0-------
|----3--------------------------6-------------------------------------------
|---------------------------------------------------------------------------
|---------------------------------------------------------------------------


You should listen to the song itself to get it right as always. h means hammer-on
(as ususal) and () ghost notes indicate that you should let those notes ring.
This should be pretty accurate, as I used a music sheet from musicnotes.com
(I confess - I can't play sheet music anymore, those tabs made me a weak sausage),
cut off the bass using a midi editor, then converted the midi into a tab using
Power Tab Editor and fixed a few notes manually and cut a few chords.

I am in no way claiming copyrights, as I used free (somewhat) and open (somewhat)
sources and tools. If you have any additions or would like to fix it - please mail
webmasters of some guitar sites.

Almost there ...

Sign in to get your own page with links to favourite songs and more. You are just one click away...

Login with Facebook Login with Google