Log in

One click and you are in

Login with Facebook Login with Google

Why sign up and log in

Guitar Tabs Explorer
Misc Soundtrack tabs for Running man

Guitar tabs

from: shak <zenbuddha69@yahoo.co.uk>
subject: theme from the movie 'running man'

this tune is just itching to be put on a drum 'n bass track!

|------------|-----------------------------
|--0-2-3-5-7-|-----0-2-3-5-7-9-11-12-------
|------------|-----------------------4-----
|------------|-----------------------------
|------------|-----------------------------
|------------|-----------------------------


|------------|----------------------------
|--0-2-3-5-7-|-----0-2-3-5-7-9-11-12-9----
|------------|----------------------------
|------------|----------------------------
|------------|----------------------------
|------------|----------------------------


|------------|----------------------------
|--0-2-3-5-7-|-----0-2-3-5-7-9-11-12-14---
|------------|----------------------------
|------------|----------------------------
|------------|----------------------------
|------------|----------------------------


just repeat over and over and so on.

Other versions of Running Man

Running man themeTabs

Almost there ...

Sign in to get your own page with links to favourite songs and more. You are just one click away...

Login with Facebook Login with Google