Log in

One click and you are in

Login with Facebook Login with Google

Why sign up and log in

Guitar Tabs Explorer
Misc Soundtrack tabs for Requiem for a dream theme

Guitar tabs

h-hammer on
p-pull-off


Intro

e-6-5-3---6-5-3---6-5-3---8-6-5-6-|
B-------3-------3-------3---------|
G---------------------------------|
D---------------------------------|
A---------------------------------|
E---------------------------------|

e-6-5-3---6-5-3---6-5-3---8-6-5-3-|
B-------3-------3-------3---------|
G---------------------------------|
D---------------------------------|
A---------------------------------|
E---------------------------------|

Next

e-6-3-6363-6363-6363636363------|
B-------------------------------|
G-------------------------------|
D-------------------------------|
A-------------------------------|
E-------------------------------|

e-65-6565-6565-6565656565-------|
B-------------------------------|
G-------------------------------|
D-------------------------------|
A-------------------------------|
E-------------------------------|

e-6-3-63633-63633-6363636363----|
B-------------------------------|
G-------------------------------|
D-------------------------------|
A-------------------------------|
E-------------------------------|

e-655-65655-65655-6565656565----|
B-------------------------------|
G-------------------------------|
D-------------------------------|
A-------------------------------|
E-------------------------------|

Then

e-6-5-3-666-55p3-3-666-55p3-3---|
B-------------------------------|
G-------------------------------|
D-------------------------------|
A-------------------------------|
E-------------------------------|

e-333-55-h6-66------------------|
B-------------------------------|
G-------------------------------|
D-------------------------------|
A-------------------------------|
E-------------------------------|

e-666-55p3-3-(x3)---------------|
B-------------------------------|
G-------------------------------|
D-------------------------------|
A-------------------------------|
E-------------------------------|

e-333-55-h6-66------------------|
B-------------------------------|
G-------------------------------|
D-------------------------------|
A-------------------------------|
E-------------------------------|

End

(Gradually slow down notes)
e-6-5-3---6-5-3---6-5-3---------|
B-------3-------3-------3-------|
G-------------------------------|
D-------------------------------|
A-------------------------------|
E-------------------------------|

Easy!

Other versions of Requiem For A Dream Theme

Requiem for a dream themeChords

Almost there ...

Sign in to get your own page with links to favourite songs and more. You are just one click away...

Login with Facebook Login with Google