Log in

One click and you are in

Login with Facebook Login with Google

Why sign up and log in

Guitar Tabs Explorer
Misc Soundtrack tabs for Red violin

Guitar tabs

theme from the superb Red Violin Soundtrack
(scene with Alexander Pope and Victoria; track 11 on
the cd)
originally composed by John Corigliano; arr. for katar
by patrick
email me if you like this: katarjedi@yahoo.com

this took a whole 5 mins to do, but it's a gorgeous
melody. play with lots of vibrato, sustain, and
reverb.

-------------------------------------------------12~-
----------13~-12~-10-12-13-12~-9---------------------
-/9~-10-9-----------------------9~----9-10-12-9~-----
-----------------------------------12----------------
-----------------------------------------------------
-----------------------------------------------------

-11~-9-11-12-14~-11~------16~-14-12--------------
-------------------13---------------16-14-12-16~-
----------------------13~------------------------
-------------------------------------------------
-------------------------------------------------
-------------------------------------------------

-------------------------------------------------
-12---------------12\----------------------------
----13~-11-13-14~--------------------------------
-------------------------------------------------
-------------------------------------------------
-------------------------------------------------

Almost there ...

Sign in to get your own page with links to favourite songs and more. You are just one click away...

Login with Facebook Login with Google