Log in

One click and you are in

Login with Facebook Login with Google

Why sign up and log in

Guitar Tabs Explorer
Soundtracks chords for Pirates of the caribbean - hoist the colours ukulele (Ver. 2)

Pirates Of The Caribbean - Hoist The Colours Ukulele chords by Soundtracks (Ver. 2)

Soundtracks chords for Pirates of the caribbean - hoist the colours ukulele (Ver. 2)

Guitar chords with lyrics

  • Difficulty: Beginner
Vocals for verses, no chords/notes for them included.

♫ Chorus 1:
A|----------------------------------------------------------|
E|----------------------------------------------------------|
C|-5-------0-------5-------0-------5---5---8----7-5-7-------|
G|----------------------------------------------------------|
                                 x2
A|---------------------------------------------------------|
E|---------------------------------------------------------|
C|-7-------0-------7----7--0--0----7---8---0---3---5-------|
G|---------------------------------------------------------|
Verse 1:
N.C.
The King and his men stole the queen from her bed
N.C.
and bound her in her bones
N.C.
The seas be ours and by the powers
N.C.
Where we will we'll roam

♫ Chorus 2:
A|----------------------------------------------------------|
E|----------------------------------------------------------|
C|-5-------0-------5-------0-------5---5---8----7-5-7-------|
G|----------------------------------------------------------|

A|---------------------------------------------------------|
E|---------------------------------------------------------|
C|-7-------0-------7----7--0--0----7---8---0---3---5-------|
G|---------------------------------------------------------|

♫ Verse 2:
N.C.
Some men have died and some are alive
N.C.
And others sail on the sea
N.C.
With the keys to the cage
N.C.
And the devil to pay
N.C.
We lay to Fiddler's Green!

♫ Chorus 1:
A|----------------------------------------------------------|
E|----------------------------------------------------------|
C|-5-------0-------5-------0-------5---5---8----7-5-7-------|
G|----------------------------------------------------------|

A|---------------------------------------------------------|
E|---------------------------------------------------------|
C|-7-------0-------7----7--0--0----7---8---0---3---5-------|
G|---------------------------------------------------------|

♫ Verse 3:
N.C.
The bell has been raised from its watery grave
N.C.
Do you hear its sepulchral tone?
N.C.
A Call to all, pay heed to the squall
N.C.
And turn your sail towards home!

♫ Chorus 1:
A|----------------------------------------------------------|
E|----------------------------------------------------------|
C|-5-------0-------5-------0-------5---5---8----7-5-7-------|
G|----------------------------------------------------------|

A|---------------------------------------------------------|
E|---------------------------------------------------------|
C|-7-------0-------7----7--0--0----7---8---0---3---5-------|
G|---------------------------------------------------------|

**********************************************************************
Lyrics for ♫ Chorus 1:
Yo
Ho haul together, hoist the colours high
Heave ho, thieves and beggars, never shall we die

Lyrics for ♫ Chorus 2:
Yo
Ho haul together, hoist the colours high
Heave ho, thieves and beggars, never say we die
**********************************************************************

Other versions of Pirates Of The Caribbean - Hoist The Colours Ukulele

Pirates of the caribbean - hoist the colours ukuleleChords

Almost there ...

Sign in to get your own page with links to favourite songs and more. You are just one click away...

Login with Facebook Login with Google