Log in

One click and you are in

Login with Facebook Login with Google

Why sign up and log in

Guitar Tabs Explorer
Misc Soundtrack bass tabs for Pirates of the caribbean - hes a pirate

Pirates Of The Caribbean - He's A Pirate bass tab by Misc Soundtrack

Misc Soundtrack bass tabs for Pirates of the caribbean - hes a pirate

Bass tabs

Standard Tuning: E,A,D,G

Part 1

 G-----------------------------------------------------|
 D-----------------------------------------------------|
 A---5-55-55-5555--------------------------------------|2x
 E-----------------------------------------------------|

Part 2
 G-----------------------------------------------------|
 D----------233--3522----------------------------------|
 A--0355--5-----------535------------------------------|2x
 E-----------------------------------------------------|

Part3
 G-----------------33202------------------------------|
 D----------2-5555------3-0233572--532----------------|
 A--0355--5----------------------------535------------|1x
 E----------------------------------------------------|

Repeat Part 2 and 3


 G---------------7-7--32--------2----------------------|
 D------33-5------7-----3-----3------------------------|
 A---55------2--------------5--------------------------|1x
 E-----------------------------------------------------|


 G-----------------------------------------------------|
 D---77787-55557-77787--5320---------------------------|
 A-----------------------------------------------------|1x
 E-----------------------------------------------------|

 G-------575323575--3575323202-0-----------------------|
 D---578----------------------3------------------------|
 A-----------------------------------------------------|1x
 E-----------------------------------------------------|

 G-------575357532--0235783535202----------------------|
 D---578-------------------------3---------------------|
 A-----------------------------------------------------|1x
 E-----------------------------------------------------|

 G-----------------------------------------------------|
 D---7-8-7777-5-5-3-2-3-2-0----------------------------|
 A-----------------------------------------------------|2x
 E-----------------------------------------------------|


 G-----------------------------------------------------|
 D---0007-0008-00077(10)75-5-3-2-3-2-0-----------------|
 A-----------------------------------------------------|2x
 E-----------------------------------------------------|

Almost there ...

Sign in to get your own page with links to favourite songs and more. You are just one click away...

Login with Facebook Login with Google