Log in

One click and you are in

Login with Facebook Login with Google

Why sign up and log in

Guitar Tabs Explorer
Misc Soundtrack bass tabs for Monsters university - marchfourth marching band - gospel

Monsters University - Marchfourth Marching Band - Gospel bass tab by Misc Soundtrack

Misc Soundtrack bass tabs for Monsters university - marchfourth marching band - gospel

Bass tabs

Main Riff:
G|---------------------------------------------------------------------------|
D|---------------------------------------------------------------------------|
A|6------8-------------------------8-----------------------------------------|
E|------------8-----10-----6---------------8---------------------------------|

After 3:15
G|----10-------------------9----------------------9--------------------------|
D|--8----8--------10----------------------------------------10--------8-10-10|
A|6----------8--8-------10---10--------12------8----8---8-8--------10--------|
E|--------------------8----------10-10------6--------------------8-----------|

Almost there ...

Sign in to get your own page with links to favourite songs and more. You are just one click away...

Login with Facebook Login with Google